Song name
# A B C D E F G H I J K L M N O P Q R S T U V W X Y Z

Ramones - I Wanted Everything tab

I Wanted Everything by the Ramones
(standard tuning)


|-------------------------------|
|-------------------------------|
|-------7-----5-5-5-5--5-5-5-5--|
|-7--7--5-4-5-3-3-3-3--3-3-3-3--|
|-5--5----2-3-------------------|
|-------------------------------|
4 times


|----------------------------------|
|----------------------------------|
|----------------------------------|
|-------------------7-7-7-7--------|
|-5-5-5-5--7-7-7-7--5-5-5-5--9--7--|
|-3-3-3-3--5-5-5-5-----------7--5--|
4 times


Chorus
|------------------------------|-----------------|
|------------------------------|-----------------|
|------------------------------|-----------------|
|-9--9--5--5--7-7-7-7--7-7-7-7-|--9--9--12-12--9-|
|-7--7--3--3--5-5-5-5--5-5-5-5-|--7--7--10-10--7-|
|------------------------------|-----------------|
3 times


|-------------------------------|
|-------------------------------|
|-------7-----5-5-5-5--5-5-5-5--|
|-7--7--5-4-5-3-3-3-3--3-3-3-3--|
|-5--5----2-3-------------------|
|-------------------------------|
4 times


|----------------------------------|
|----------------------------------|
|----------------------------------|
|-------------------7-7-7-7--------|
|-5-5-5-5--7-7-7-7--5-5-5-5--9--7--|
|-3-3-3-3--5-5-5-5-----------7--5--|
4 times


|-------------------------------|
|-------------------------------|
|-------------5-5-5-5--5-5-5-5--|
|-------7-----3-3-3-3--3-3-3-3--|
|-7--7--5-4-5-------------------|
|-5--5----2-3-------------------|
4 times


Tap to rate this tab
# A B C D E F G H I J K L M N O P Q R S T U V W X Y Z