Song name
# A B C D E F G H I J K L M N O P Q R S T U V W X Y Z

Ran - Dekat Di Hati chords

Highlighted       Show chord diagrams
Intro: E6 DMaj7 Bm7 A5 E6

Verse 1:
A                                        DMaj7
Dering telfonku membuatku tersenyum di pagi hari

Bm7                                   A         A5-E6
Kau bercerita semalam kita bertemu dalam mimpi

A                                  DMaj7
Entah mengapa aku merasakan hadirmu di sini

Bm7                                  A A7
Tawa candamu menghibur saat ku sendiri

Chorus:
DMaj7
Aku di sini dan kau di sana

C#m7
Hanya berjumpa via suara

Bm7                                           A A7
Namun ku s'lalu menunggu saat kita akan berjumpa

DMaj7
Meski kau kini jauh di sana

C#m7
Kita memandang langit yang sama

Bm7             E              A Asus4 A A5 E6
Jauh di mata namun dekat di hati

Verse 2:
A                                        DMaj7
Dering telfonku membuatku tersenyum di pagi hari

Bm7                                  A A5
Tawa candamu menghibur saat ku sendiri

Chorus:
DMaj7
Aku di sini dan kau di sana

C#m7
Hanya berjumpa via suara

Bm7                                           A A7
Namun ku s'lalu menunggu saat kita akan berjumpa

DMaj7
Meski kau kini jauh di sana

C#m7
Kita memandang langit yang sama

Bm7             E              A Asus4 A A5 E6
Jauh di mata namun dekat di hati

Interlude:
   DMaj7                   C#m7                                Bm7
e -----5--4s5-----------5-7s9--12-9---------------------------------|
B --5s7-------5--5-5-5-7------------10-10s12-10----9s10-9-----------|
G -------------------------------------------------------9----9s11--|
D -----------------------------------------------11--------11-------|
A ------------------------------------------------------------------|
E ------------------------------------------------------------------|

                            A
e ------------------------------------------------------------------|
B -------------10-12--12s14-14-12-12-10-10-12-12s14-----------------|
G --11-11-9-11------------------------------------------------------|
D ------------------------------------------------------------------|
A ------------------------------------------------------------------|
E ------------------------------------------------------------------|

(violin solo)

overtone

Chorus:
EMaj7
Aku di sini dan kau di sana

D#m7
Hanya berjumpa via suara

C#m7                                           B B7
Namun ku s'lalu menunggu saat kita akan berjumpa

EMaj7
Meski kau kini jauh di sana

D#m7
Kita memandang langit yang sama

C#m7             F#
Jauh di mata namun kau dekat di hati

EMaj7
Jarak dan waktu tak kan berarti

D#m7
Kar'na kau akan selalu di hati

C#m7                                       B    B7
Bagai detak jantung yang kubawa kemanapun ku pergi

EMaj7
Meski kau kini jauh di sana

D#m7
Kita memandang langit yang sama

C#m7             F#           B   C#m7
Jauh di mata namun dekat di hati

F#         B   C#m7
Dekat di hati

F#         B
Dekat di hati
Tap to rate this tab
# A B C D E F G H I J K L M N O P Q R S T U V W X Y Z