Song name
# A B C D E F G H I J K L M N O P Q R S T U V W X Y Z

Rancid - Ruby Soho tab

Guitar 1 (Tim)
Guitar 2 (Lars)

INTRO

Guitar 1:
  1---2---3---4---1---2---3---4---
(Let each chord ring)
E|3-----------------------3-------|
B|3-----------------------3-------|
G|0-------4-------5-------0-------|
D|0-------4-------5-------0-------|
A|2-------2-------3-------2-------|
E|3-----------------------3-------|

Guitar 2:
  1---2---3---4---1---2---3---4---
(Arpeggio in G chord [320033])
E|--------------------------------|
B|----3---------3-------3---------|
G|------------0-0-----0-0---------|
D|------0---------0---0---0-------|
A|--------2-----------------------|
E|3-------------------------------|

The intro is x 4; guitar 1 starts and goes all the way through, however guitar 2 starts after
the first time; so only plays 3 times (On the first time guitar 2 can start with the G 
aswell, and leave it ringing as guitar 1 plays the rest - then comes in with the arpeggio).

VERSE

Guitar 2 [Palm Muted]:
  1---2---3---4---1---2---3---4---1---2---3---4---1---2---3---4---

E|----------------------------------------------------------------|
B|----------------------------------------------------------------|
G|5-5-5-5-5-5-5-5-7-7-7-7-7-7-7-7-----------------5-5-5-5-5-5-5-5-|
D|5-5-5-5-5-5-5-5-7-7-7-7-7-7-7-7-5-5-5-5-5-5-5-5-5-5-5-5-5-5-5-5-|
A|3-3-3-3-3-3-3-3-5-5-5-5-5-5-5-5-5-5-5-5-5-5-5-5-3-3-3-3-3-3-3-3-|
E|--------------------------------3-3-3-3-3-3-3-3-----------------|


Verse is x 4

CHORUS

Chorus is same as intro, however guitar 2 comes in from the start.

Guitar 1:
  1---2---3---4---1---2---3---4---
(Let each chord ring)
E|3-----------------------3-------|
B|3-----------------------3-------|
G|0-------4-------5-------0-------|
D|0-------4-------5-------0-------|
A|2-------2-------3-------2-------|
E|3-----------------------3-------|

Guitar 2:
  1---2---3---4---1---2---3---4---
(Arpeggio in G chord [320033])
E|--------------------------------|
B|----3---------3-------3---------|
G|------------0-0-----0-0---------|
D|------0---------0---0---0-------|
A|--------2-----------------------|
E|3-------------------------------|

Chorus is x 4


VERSE x 4 again

CHORUS x 4 again

INTERLUDE

Guitar 1:
  1---2---3---4---1---2---3---4---1---2---3---4---1---2---3---4---

E|--------------------------------3---3--3--3~-3-3-3-3-3-3-3-3-3-3-|
B|--------------------------------3---3--3--3~-3-3-3-3-3-3-3-3-3-3-|
G|5---5---3-/-4-/-5-5-5---3-/-4-/----------------------------------|
D|5---5---3-/-4-/-5-5-5---3-/-4-/----------------------------------|
A|3---3---1-/-2-/-3-3-3---1-/-2-/----------------------------------|
E|-----------------------------------------------------------------|

Guitar 2:
  1---2---3---4---1---2---3---4---1---2---3---4---1---2---3---4---

E|------------------------------------------------------------------|
B|------------------------------------------------------------------|
G|5---5---3-/-4-/-5-5-5---3-/-4-/-5---5---3-/-4-/-5-5-5---3-/-4-/---|
D|5---5---3-/-4-/-5-5-5---3-/-4-/-5---5---3-/-4-/-5-5-5---3-/-4-/---|
A|3---3---1-/-2-/-3-3-3---1-/-2-/-3---3---1-/-2-/-3-3-3---1-/-2-/---|
E|------------------------------------------------------------------|


Then

VERSE x 4

CHORUS x 4

BRIDGE

Guitar 1:
  1---2---3---4---1---2---3---4---
(Let each chord ring)
E|3-----------------------3-------|
B|3-----------------------3-------|
G|0-------4-------5-------0-------|
D|0-------4-------5-------0-------|
A|2-------2-------3-------2-------|
E|3-----------------------3-------|

Bridge is x 4

Then

CHORUS x 4

Then end on a G [320033]
Tap to rate this tab
 
# A B C D E F G H I J K L M N O P Q R S T U V W X Y Z