Guitaretab - guitar tabs
Song name
# A B C D E F G H I J K L M N O P Q R S T U V W X Y Z
Home / R / Rancid / Poison tab

Rancid - Poison tab

This is my very first tab i love this song all this should be pretty accurate so if you 
any questions my email is mitsurugi4yahoo.com later.....

Intro/Verse
e------------------------------|
B------------------------------|
G---6--------3-----------------|Hold Each Note
D---6---3----3----4------------|
A---4---3----1----4------------|
E-------1---------2------------|
Stroke once w/Distortion
[ Tab from: http://www.guitaretab.com/r/rancid/159553.html ]
Chorus
e---------------------------------------------------|
B---------------------------------------------------|x4
G---6x4-----------3-x4-----------------------------|
D---6------3-x4----3------4-x4----------------------|
A---4------3-------1------4-------------------------|
E----------1--------------2-------------------------|

  Outro
e-----------------------------------------------------|
B-----------------------------------------------------|
G----6----5----4----3---------------------------------|
D----6----5----4----3---------------------------------|
A----4----3----2----1---------------------------------|
E-----------------------------------------------------|
Related for Poison tab