Rancid - Disconnected tab

-------------------------------------------------------------------------------
			     DISCONNECTED - Rancid
-------------------------------------------------------------------------------
Tabbed by: Chris
Email: chris@bbzzdd.com

Tuning: Standard

This will give you the chords.  Listen to the recording to figure out the
rhythm.

Intro 

e|---------------------------------------------------------------------------|
B|------------4--------------------------------------------------------------|
G|--3-- ------3----3---------------------------------------------------------|
D|--3----3----1----3---------------------------------------------------------|
A|--1----3---------1---------------------------------------------------------|
E|-------1-------------------------------------------------------------------|

Intro (easier)

e|---------------------------------------------------------------------------|
B|---------------------------------------------------------------------------|
G|--3-- ------8----3---------------------------------------------------------|
D|--3----3----8----3---------------------------------------------------------|
A|--1----3----6----1---------------------------------------------------------|
E|-------1-------------------------------------------------------------------|

"Disconnected..."

e|---------------------------------------------------------------------------|
B|------------8--------------------------------------------------------------|
G|--3-- ------8----3---------------------------------------------------------|
D|--3----3----6----3---------------------------------------------------------|
A|--1----3---------1---------------------------------------------------------|
E|-------1-------------------------------------------------------------------|

Breakdown

e|---------------------------------------------------------------------------|
B|---------------------------------------------------------------------------|
G|--3----10---------10---------10--------------------------------------------|
D|--3----10----8----10----8----10--------------------------------------------|
A|--1----8-----8----8-----8----8---------------------------------------------|
E|-------------6----------6--------------------------------------------------|

"You think it's over..."

e|---------------------------------------------------------------------------|
B|---------------------------------------------------------------------------|
G|--15----------19----15-----------------------------------------------------|
D|--15----15----19----15-----------------------------------------------------|
A|--13----15----17----13-----------------------------------------------------|
E|--------13-----------------------------------------------------------------|

Use the edge of your pick to scrape/strum the above.

************************************

| /   slide up
| \   slide down
| h   hammer-on
| p   pull-off
| ~   vibrato
| +   harmonic
| x   Mute note
| b   Bend
| pb  Pre-bend
| br  Bend release
| pbr Pre-bend release
| brb Bend release bend

************************************
Tap to rate this tab
 
# A B C D E F G H I J K L M N O P Q R S T U V W X Y Z