Song name
# A B C D E F G H I J K L M N O P Q R S T U V W X Y Z

Rancid - Journey To The End Of The East Bay tab

PM=^^

Intro:

         C5             G5              A5              F5             C5

E -------------------------------------------------------------------------------
B -------------------------------------------------------------------------------
G ----------------12-12-12-12-12--14-14-14-14-14--10-10-10-10-10--12-12-12-12-12-
D 10-10-10-10-10--12-12-12-12-12--14-14-14-14-14--10-10-10-10-10--10-10-10-10-10-
A 10-10-10-10-10--10-10-10-10-10--12-12-12-12-12--8--8--8--8--8---10-10-10-10-10-
E 8--8--8--8--8---------------------------------------------------8--8--8--8--8--

       G5              F5
E -------------------------------/
B -------------------------------/
G 12-12-12-12-12--10-10-10-10-10-/
D 12-12-12-12-12--10-10-10-10-10-/
A 10-10-10-10-10--8--8--8--8--8--/
E -------------------------------/

Verse:

      C5         G5      A5          F5
E -------------------------------------------/
B -------------------------------------------/
G 5-5-5-5-5----------------------------------/  repeat 
D 5-5-5-5-5--5-5-5-5-5--7-7-7-7-7--3-3-3-3-3-/    x4
A 3-3-3-3-3--5-5-5-5-5--7-7-7-7-7--3-3-3-3-3-/
E -----------3-3-3-3-3--5-5-5-5-5--1-1-1-1-1-/
  ^     ^    ^ ^ ^ ^ ^  ^   ^      ^ ^ ^ ^ ^

Second guitar on verse
            G5

E -------------------------------/
B -------------------------------/
G 12-12-12-12-12-12-12-12--------/
D 12-12-12-12-12-12-12-12--------/
A 10-10-10-10-10-10-10-10--------/
E -------------------------------/

Play:
Verse
intro
verse


Rock on !!!!!!!!!
Tap to rate this tab
 
# A B C D E F G H I J K L M N O P Q R S T U V W X Y Z