Guitaretab - guitar tabs
Song name
# A B C D E F G H I J K L M N O P Q R S T U V W X Y Z

Randy Butler - Before You tab

The song is played in Drop C.
its only the intro and the verse caus its boring to write it x)
but its a very simple song =)


intro: 

|----------------|----------------|----------------|----------------|
|----------------|----------------|----------------|----------------|
|----------------|----10-10-10----|----10-10-10----|----10-10-10----|
|--------------1-|0-----------0-1-|0-----------0-1-|0-----------0-1-|
|--------------1-|0-----------0-1-|0-----------0-1-|0-----------0-1-|
|--------------1-|0-----------0-1-|0-----------0-1-|0-----------0-1-|
[ Tab from: http://www.guitaretab.com/r/randy-butler/141881.html ]
|----------------|----------------|----------------|----------------|
|----------------|----------------|----------------|----------------|
|----------------|----------------|----------------|----------------|
|0---------------|010-----010-----|010-----010-4444|010-----010-----|
|0-----------/--\|010-----010-----|010-----010-4444|010-----010-----|
|0-----------/--\|010-0-0-010-0-0-|010-0-0-010-4444|010-0-0-010-0-0-|

|----------------|
|----------------|
|----------------|
|010-----010-4444|
|010-----010-4444|
|010-0-0-010-4444|

verse:

|----------------|
|----------------|
|----------------|
|----------------| 
|--------------23|
|00-000-000-00023|  x7

          /3\/3\
|----------------|
|----------------|
|----------------|
|---------0--0---|
|---------0--0---|
|00-000-0-000000-|