Song name
# A B C D E F G H I J K L M N O P Q R S T U V W X Y Z

Randy Edelman - Macgyver tab

                                                                         x2
E|-----------------------------------------------------10p8-10p8-------|
B|------10-12-10-------10-12-10---------10-12-10-----------------12-10-|
G|----9----------9---9----------9-----9----------9---9-----------------|
D|--9--------------9--------------9-9--------------9-------------------|
A|---------------------------------------------------------------------|
E|---------------------------------------------------------------------|


E|--------------/10-10------------------------------------|
B|--12-12-12-10---------10h12-12-10h12-10-----------------|
G|--------------------------------------------------------|
D|--------------------------------------------------------|
A|--------------------------------------------------------|
E|--------------------------------------------------------|


E|--13-13-13-13-13-13-13-12~----------13-13-12-13-12-------10-----|
B|--14-14-14-14-14-14-14--------------------------------------12~-|
G|---------------------------12-14-12----------------14-12--------|
D|----------------------------------------------------------------|
A|----------------------------------------------------------------|
E|----------------------------------------------------------------|


E|-----------------------------------------12------------------|
B|--13-13-12----------13-13-12-13-12----------10-12------------|
G|-----------12-14-12----------------14-12---------------------|
D|-------------------------------------------------------------|
A|-------------------------------------------------------------|
E|-------------------------------------------------------------|


E|-----------------------------------------12--------14-----15-|
B|--13-12----13--13-12-15--13-12-15--13-12-----12-12-----12----|
G|--------14---------------------------------------------------|
D|-------------------------------------------------------------|
A|-------------------------------------------------------------|
E|-------------------------------------------------------------|


E|--15-12-----14--------12------------------------------------------------|
B|--------13-----15-12-----13-----15-12-----13-12-13-12-------------------|
G|----------------------------14--------12--14----------14-12--/16-14-12~-|
D|------------------------------------------------------------------------|
A|------------------------------------------------------------------------|
E|------------------------------------------------------------------------|


E|--13-13-13-13-13-13-13-12~----------13-13-12-13-12-------10-----|
B|--14-14-14-14-14-14-14--------------------------------------12~-|
G|---------------------------12-14-12----------------14-12--------|
D|----------------------------------------------------------------|
A|----------------------------------------------------------------|
E|----------------------------------------------------------------|

E|------------------------------------------12-------------12-15~-|
B|--13-13-12-----------13-13-12-13-12----------10-12-13-15--------|
G|-----------12-14-12~----------------14-12-----------------------|
D|----------------------------------------------------------------|
A|----------------------------------------------------------------|
E|----------------------------------------------------------------|

Here's the stepdown finale for the theme song. MY OWN INTERPRETATION.
Figuring it out by ear was not working well for me so I went with this.
Feel free to mess around with it.

E|--14------------------------------------------------------------------|
B|--------14----15------------------------------------------------------|
G|-----11----11-------14-13-11---------------------11-11-11-11-11-11-11-|
D|-----------------14---------11-14-11-12-11-14-11-11-11-11-11-11-11-11-|
A|----------------------------------------------------------------------|
E|----------------------------------------------------------------------|


KEY:
p = pull-off
/ = slide
, = Multiple notes played (Just a separation gesture)
~ = Vibrato
x# = Number of times a section is replayed
____________________________________________________________________________

Special thanks and credit to:
fpvdp--> on Youtube with video  "Macgyver theme on Mario paint composer"
DavidSousaMusic--> on Youtube with video "Macgyver Theme Song Guitar Cover"
Tap to rate this tab
# A B C D E F G H I J K L M N O P Q R S T U V W X Y Z