Song name
# A B C D E F G H I J K L M N O P Q R S T U V W X Y Z

Randy - Razorblade tab

Song: Razorblade
Band: Randy
Album: Ranby The Band - 2005

usual tuning

INTRO

e------------------------------|
B------------------------------|
G------------------------------|
D--7-7-7-7-7-7-7-9-11-11-9-9---|
A--7-7-7-7-7-7-7-7-9--9--7-7---|
E--5-5-5-5-5-5-5---------------|x3

e------------------------------|
B------------------------------|
G------------------------------|
D--7-7-7-7---------------------|
A--7-7-5-5-7-7-7-7-7-7-7-7-7-7-|
E--5-5-----5-5-5-5-5-5-5-5-5-5-| *maybe a couple more

e------------------------------|
B------------------------------|
G------------------------------|
D--7-7-7-----------------------|
A--5-5-7-----------------------|
E------5-----------------------|

So that' is the intro ... very simple.
thanks
luishrs@gmail.com
luis@*
Tap to rate this tab
# A B C D E F G H I J K L M N O P Q R S T U V W X Y Z