Song name
# A B C D E F G H I J K L M N O P Q R S T U V W X Y Z

Rapture Ruckus - Thank You tab

Rapture Ruckus - Thank You

e|---------------------------------------------------------------------------|
B|--------6--------5--3--3--------3-------------3--------5--6----------------|
G|-----------------5--3-----3--------3-------3-----3-----5-------------------|
D|-----7-----7----------------------------------------------7----------------|
A|--5-----------3-----1--------1----------1-----------3-----5----------------|
E|---------------------------------------------------------------------------|

That plays clean throughout the entire song^

e|--------------------11------------------11----------13----15---------------|
B|---------------------------------------------------------------------------|
G|--14----------12----10-----------------------------------------------------|
D|---------------------------------------------------------------------------|
A|---------------------------------------------------------------------------|
E|---------------------------------------------------------------------------|

This is the distorted guitar part in the intro^.
Fade the '10' out just after playing it so that the '11' comes through like in the song.

e|---------------------------------------------------------------------------|
B|--10----------8-----6-------------------6-----------8-----10---------------|
G|---------------------------------------------------------------------------|
D|---------------------------------------------------------------------------|
A|---------------------------------------------------------------------------|
E|---------------------------------------------------------------------------|

e|---------------------------------------------------------------------------|
B|--10----------8-----6-------------------6-----------8-----3----------------|
G|---------------------------------------------------------------------------|
D|---------------------------------------------------------------------------|
A|---------------------------------------------------------------------------|
E|---------------------------------------------------------------------------|

This plays throughout the verses^

e|---------------------------------------------------------------------------|
B|---------------------------------------------------------------------------|
G|---------------------------------------------------------------------------|
D|--12----------10----8-------------------8----------10----12----------------|
A|--12----------10----8-------------------8----------10----12----------------|
E|--10----------8-----6-------------------6----------8-----10----------------|

And this plays in the chorus^

Listen to the song to get the timing and everything and to figure out what goes where 
how many times you repeat it.
The distorted guitar in the chorus can be played in drop d therefore it would be 12 12 
10 10 10, 8 8 8. Both ways work.
Choose what you want doesn't really matter.
Tap to rate this tab
# A B C D E F G H I J K L M N O P Q R S T U V W X Y Z