Song name
# A B C D E F G H I J K L M N O P Q R S T U V W X Y Z

Rasmus - Smash tab

-------------------------------------------------------------------------------
			     Smash - The Rasmus
-------------------------------------------------------------------------------
Tabbed by: Borbi01
Email: sebastianmorlang@googlemail.com


Tuning: Standard


Verse:
e|----------------------------3----------------------------------------------|
B|-------5--------6--------------------5-------------------------------------|
G|----5--------5-----5-4-2-0-------------------------------------------------|
D|----------------------------------5----------------------------------------| 4x
A|---------------------------------------------------------------------------|
E|-5--------5--------------------3-------------------------------------------|


After the 2nd time another guitar enters playing this:

e|-0--0---1--1---3--3---0--0-------------------------------------------------|
B|-1--1---1--1---3--3---1--1-------------------------------------------------|
G|-2--2---2--2---4--4---0--0-------------------------------------------------|
D|-2--2---3--3---5--5---2--2-------------------------------------------------| 2x
A|-0--0---3--3---5--5---3--3-------------------------------------------------|
E|--------1--1---3--3--------------------------------------------------------|

Then:
e|-0-----0---0-----0---7-----------------------------------------------------|
B|-1-----0---1-----0------8-5------------------------------------------------|
G|-2-----0---2-----0---------------------------------------------------------|
D|-2-----2---2-----2---------------------------------------------------------|
A|-0-----2---0-----2---------------------------------------------------------|
E|-------0---------0---------------------------------------------------------|

Chorus:
e|---------------------------------------------------------------------------|
B|---------------------------------------------------------------------------|
G|-----7---------------------------------------------------------------------|
D|-3---7---7-7-7-7-7-7-7-7--5-5-5-5-5-5-5-5----------------------------------| 3x
A|-3---5---7-7-7-7-7-7-7-7--5-5-5-5-5-5-5-5----------------------------------|
E|-1-------5-5-5-5-5-5-5-5--3-3-3-3-3-3-3-3----------------------------------|

e|---------------------------------------------------------------------------|
B|---------------------------------------------------------------------------|
G|-----7---------------------------------------------------------------------|
D|-3---7---------------------------------------------------------------------|
A|-3---5---------------------------------------------------------------------|
E|-1-------------------------------------------------------------------------|

Bridge:
e|------x-x-x-x-x-x--------------------------x-x--------------------------------------|
B|------x-x-x-x-x-x--------------------------x-x--------------------------------------|
G|------x-x-x-x-x-x--------------------------x-x--------------------------------------|
D|-7\---x-x-x-x-x-x---2-2-2-2-2-2-2-2---7\---x-x---2-2-2-2-2-2-2-2--3-3-3-3-3-3-3-3---|
A|-7\---x-x-x-x-x-x---2-2-2-2-2-2-2-2---7\---x-x---2-2-2-2-2-2-2-2--3-3-3-3-3-3-3-3---|
E|-5\---x-x-x-x-x-x---0-0-0-0-0-0-0-0---5\---x-x---0-0-0-0-0-0-0-0--1-1-1-1-1-1-1-1---|

e|------------------------x-x-x-x-x---------------------------------------------------|
B|------------------------x-x-x-x-x---------------------------------------------------|
G|-7-7-7-7-7-7-7-7--------x-x-x-x-x---------------------------------------------------|
D|-7-7-7-7-7-7-7-7---7\---x-x-x-x-x---2-2-2-2-2-2-2-2---7\--(7\)---2-2-2-2-2-2-2-2----|
A|-5-5-5-5-5-5-5-5---7\---x-x-x-x-x---2-2-2-2-2-2-2-2---7\--(7\)---2-2-2-2-2-2-2-2----|
E|-------------------5\---x-x-x-x-x---0-0-0-0-0-0-0-0---5\--(5\)---0-0-0-0-0-0-0-0----|

Chorus "2":
e|---------------------------------------------------------------------------|
B|---------------------------------------------------------------------------|
G|-----7---------------------------------------------------------------------|
D|-3---7---7-7-7-7-7-7-7-7--5-5-5-5-5-5-5-5----------------------------------| 4x
A|-3---5---7-7-7-7-7-7-7-7--5-5-5-5-5-5-5-5----------------------------------|
E|-1-------5-5-5-5-5-5-5-5--3-3-3-3-3-3-3-3----------------------------------|

e|------------------------------------------------------------------------------------|
B|------------------------------------------------------------------------------------|
G|-----7----------------------------7-7-7-7-7-7-7-7-----------------------------------|
D|-3---7---7---5---3-3-3-3-3-3-3-3--7-7-7-7-7-7-7-7--7-7-7-7-7-7-7-7--5-5-5-5-5-5-5-5-|
A|-3---5---7---5---3-3-3-3-3-3-3-3--5-5-5-5-5-5-5-5--7-7-7-7-7-7-7-7--5-5-5-5-5-5-5-5-|
E|-1-------5---3---1-1-1-1-1-1-1-1-------------------5-5-5-5-5-5-5-5--3-3-3-3-3-3-3-3-|


e|---------------------------------------------------------------------------|
B|---------------------------------------------------------------------------|
G|------------------7-7-7-7-7-7-7-7------------------------------------------|
D|-3-3-3-3-3-3-3-3--7-7-7-7-7-7-7-7--7-7-------------------------------------|
A|-3-3-3-3-3-3-3-3--5-5-5-5-5-5-5-5--7-7-------------------------------------|
E|-1-1-1-1-1-1-1-1-------------------5-5-------------------------------------|


song structure:
-Verse
-Chorus
-Verse
-Chorus
-Bridge
-Chorus "2"



| /  slide up
| \  slide down
| h  hammer-on
| p  pull-off
| ~  vibrato
| +  harmonic
| x  Mute note
===============================================================================
Tap to rate this tab
# A B C D E F G H I J K L M N O P Q R S T U V W X Y Z