Song name
# A B C D E F G H I J K L M N O P Q R S T U V W X Y Z

Rasmus - One I Love tab

This is an awesome song by The Rasmus and I decided to tab it
Its my first tab but I'm sure its accurate. So Enjoy!
Intro and verse
e ----------5---0---------------------5---0-----------------------|
b------3------------6------------3------------6-------------------|
g ----------------------------------------------------------------|
d ----------------------------------------------------------------|
a ----------------------------------------------------------------|
d ----------------------------------------------------------------|

e ----------3---------0---------------3---------0----------------|
b------1--------3----------------1--------3----------------------|
g ---------------------------------------------------------------|
d ---------------------------------------------------------------|
a ---------------------------------------------------------------|
d ---------------------------------------------------------------|
Play this a few times and then at the end of the verse play

e -----------------0---1-----------------------------------------|
b---------------3------------------------------------------------|
g ------------------------------0---1---2------------------------|
d --------------------------------------------------------2------|
a --------------------------------------------------------2------|
d --------------------------------------------------------2------|
take my heart   take my soul                       I don't need them any more

Play the  power chord with distortion
Chorus with distortion
              D                         F                       C                        Bb
e --------------------------------------------------------------------------------|
b---------------------------------------------------------------------------------|
g -----------------------------------------------------------------           X 3-|
d ---------0----------------3----------------10----------------8------------------|
a ---------0----------------3----------------10----------------8------------------|
d ---------0----------------3----------------10----------------8------------------|
The one i love

e ----------------------------------------------------------------|
b-----------------------------------------------------------------|
g ----------------------------------------------------------------|
d ---------0----------------3----------------7--------------------|
a ---------0----------------3----------------7--------------------|
d ---------0----------------3----------------7--------------------|
Repeat Verse, then chorus, then verse again then play chorus twice and end it with

e -------------------------|
b--------------------------|
g ---------2---------------|           X 4
d ---------2--------3------|
a ---------0--------3------|
d ------------------3------|
                oooooover and

e --------------------------|
b---------------------------|
g --------------------------|
d -------2------------------|
a -------2------------------|
d -------2------------------|
            Again...............


You can contact me at cooldude_saksham@yahoo.co.in
Tap to rate this tab
# A B C D E F G H I J K L M N O P Q R S T U V W X Y Z