Song name
# A B C D E F G H I J K L M N O P Q R S T U V W X Y Z

Rasmus - Trigger tab

Artist : The Rasmus
Song : Trigger
Album : Hide from The Sun (UK)
Tab by: Beberasmus bebe_4048@hotmail.com
 
Easy!

Intro:
--------------P.M.--------------------
E|------------------------------------|
B|------------------------------------|
G|------------------------------------|x4
D|------------------------------------|
A|---x-x-5-5-x-x-6-6-x-x-8-8-9--------|
E|-3----------------------------------|

Then:
E|------------------------------------|
B|------------------------------------|
G|-------7-7-----8-8-----10-10-11-----|x4
D|-5-x-x-7-7-x-x-8-8-x-x-10-10-11-----|
A|-5-x-x-5-5-x-x-6-6-x-x-8--8--9------|
E|-3----------------------------------|

Verse:

This is all the verse
--------------P.M.--------------------
E|------------------------------------|
B|------------------------------------|
G|------------------------------------|
D|------------------------------------|
A|---x-x-5-5-x-x-6-6-x-x-8-8-9--------|
E|-3----------------------------------|


Chorus:

E|---------------------------------|
B|---------------------------------|
G|---------------------------------|
D|-5-5-5-5-2-2-2-2-4-4-4-4-2-2-2-2-|
A|-5-5-5-5-2-2-2-2-4-4-4-4-2-2-2-2-|
E|-3-3-3-3-0-0-0-0-2-2-2-2-0-0-0-0-|

E|-----------------------------|
B|-----------------------------|
G|-----------------------------|
D|-5-5-5-5-2-2-2-2-7-7-7-7-7-7-|
A|-5-5-5-5-2-2-2-2-7-7-7-7-7-7-|
E|-3-3-3-3-0-0-0-0-5-5-5-5-5-5-|

Then:
E|------------------------------------|
B|------------------------------------|
G|-------7-7-----8-8-----10-10-11-----|x4
D|-5-x-x-7-7-x-x-8-8-x-x-10-10-11-----|
A|-5-x-x-5-5-x-x-6-6-x-x-8--8--9------|
E|-3----------------------------------|

Verse 2:

This is all the verse
--------------P.M.--------------------
E|------------------------------------|
B|------------------------------------|
G|------------------------------------|
D|------------------------------------|
A|---x-x-5-5-x-x-6-6-x-x-8-8-9--------|
E|-3----------------------------------|

Chorus:

E|---------------------------------|
B|---------------------------------|
G|---------------------------------|
D|-5-5-5-5-2-2-2-2-4-4-4-4-2-2-2-2-|
A|-5-5-5-5-2-2-2-2-4-4-4-4-2-2-2-2-|
E|-3-3-3-3-0-0-0-0-2-2-2-2-0-0-0-0-|

E|-----------------------------|
B|-----------------------------|
G|-----------------------------|
D|-5-5-5-5-2-2-2-2-7-7-7-7-7-7-|
A|-5-5-5-5-2-2-2-2-7-7-7-7-7-7-|
E|-3-3-3-3-0-0-0-0-5-5-5-5-5-5-|

Then:
E|------------------------------------|
B|------------------------------------|
G|-------7-7-----8-8-----10-10-11-----|x2
D|-5-x-x-7-7-x-x-8-8-x-x-10-10-11-----|
A|-5-x-x-5-5-x-x-6-6-x-x-8--8--9------|
E|-3----------------------------------|

Bridge:

E|----------------------------------------------------|
B|----------------------------------------------------|
G|----------------------------------------------------|
D|-7-7-7-7-7-7-7-5-5-5-5-5-5-5-4-4-4-4-2-2-2-4-4-4-7~-|
A|-7-7-7-7-7-7-7-5-5-5-5-5-5-5-4-4-4-4-2-2-2-4-4-4-7~-|
E|-5-5-5-5-5-5-5-3-3-3-3-3-3-3-2-2-2-2-0-0-0-2-2-2-5~-|

Then:

E|-----------------------------|
B|-----------------------------|
G|-----------------------------|
D|-5-5-5-5-2-2-2-2-7-7-7-7-7-7-|
A|-5-5-5-5-2-2-2-2-7-7-7-7-7-7-|
E|-3-3-3-3-0-0-0-0-5-5-5-5-5-5-|

End:

E|------------------------------------|
B|------------------------------------|
G|-------7-7-----8-8-----10-10-11-----|x4
D|-5-x-x-7-7-x-x-8-8-x-x-10-10-11-----|
A|-5-x-x-5-5-x-x-6-6-x-x-8--8--9------|
E|-3----------------------------------|

Easy! Please reate!
PEACE!
Tap to rate this tab
 
# A B C D E F G H I J K L M N O P Q R S T U V W X Y Z