Song name
# A B C D E F G H I J K L M N O P Q R S T U V W X Y Z

Rasmus - Sold tab

Artist : The Rasmus
Song : Sold
Album : Playboys
Tab by: Beberasmus bebe_4048@hotmail.com

Another fUNNY song!

Intro:
E|---------------------------------------------------------------------------|
B|---------------------------------------------------------------------------|
G|-/15-12-x-10-10/8-5-/15-12-x-x-x-10/8-5/10-12-x-10-10/8/12b--10p8-10p8-8-5-|
D|---------------------------------------------------------------------------|
A|---------------------------------------------------------------------------|
E|---------------------------------------------------------------------------|

E|-----------------------------------------------------------|
B|-----------------------------------------------------------|
G|-/15-12-x-10-10/8-5--/15-12-x-x-x-10/8-5/15-12-x-10-10/8-5-|
D|-----------------------------------------------------------|
A|-----------------------------------------------------------|
E|-----------------------------------------------------------|

E|---------------------------------------------------------------------------|
B|---------------------------------------------------------------------------|
G|/15-12-x-10-10/8-5/10-12-x-10-10/8-5/15-12-x-10/8-5/15-12-x-10-10/8/10-15~-|
D|---------------------------------------------------------------------------|
A|---------------------------------------------------------------------------|
E|---------------------------------------------------------------------------|

Verse:
E|-----------------------------|
B|-----------------------------|
G|-5~~~~~----------------------|
D|---------5~~~~~~-------------|x2
A|-------------------3~~~~~~~~-|
E|-----------------------------|

Prechorus:
E|----------------------------------------------------------------------------|
B|----------------------------------------------------------------------------|
G|-/15-12-x-10-10/8-5--/15-12-x-x-x-10/8-5/10-12-x-10-10/8/12b--10p8-10p8-8-5-|
D|----------------------------------------------------------------------------|
A|----------------------------------------------------------------------------|
E|----------------------------------------------------------------------------|

Chorus:
E|-----------------------------|
B|-----------------------------|
G|-5-5-8-5-5-8-5-5-8-5-3-3-4-5-|
D|-----------------------------|x5
A|-----------------------------|
E|-----------------------------|
I'm gone...

Then:
E|----------------------------------------------------------------------------|
B|----------------------------------------------------------------------------|
G|-/15-12-x-10-10/8-5--/15-12-x-x-x-10/8-5/10-12-x-10-10/8/12b--10p8-10p8-8-5-|
D|----------------------------------------------------------------------------|
A|----------------------------------------------------------------------------|
E|----------------------------------------------------------------------------|

Verse 2:
E|-----------------------------|
B|-----------------------------|
G|-5~~~~~----------------------|
D|---------5~~~~~~-------------|x2
A|-------------------3~~~~~~~~-|
E|-----------------------------|

Prechorus:
E|----------------------------------------------------------------------------|
B|----------------------------------------------------------------------------|
G|-/15-12-x-10-10/8-5--/15-12-x-x-x-10/8-5/10-12-x-10-10/8/12b--10p8-10p8-8-5-|
D|----------------------------------------------------------------------------|
A|----------------------------------------------------------------------------|
E|----------------------------------------------------------------------------|

Chorus:
E|-----------------------------|
B|-----------------------------|
G|-5-5-8-5-5-8-5-5-8-5-3-3-4-5-|
D|-----------------------------|x5
A|-----------------------------|
E|-----------------------------|
I'm gone...

Then:
E|----------------------------------------------------------------------------|
B|----------------------------------------------------------------------------|
G|-/15-12-x-10-10/8-5--/15-12-x-x-x-10/8-5/10-12-x-10-10/8/12b--10p8-10p8-8-5-|
D|----------------------------------------------------------------------------|
A|----------------------------------------------------------------------------|
E|----------------------------------------------------------------------------|

Solo:
Coming soon...

Before piano solo:
E|-----------------------------|
B|-----------------------------|
G|-5~~~~~----------------------|
D|---------5~~~~~~-------------|
A|-------------------3~~~~~~~~-|
E|-----------------------------|

Chorus:
E|-----------------------------|
B|-----------------------------|
G|-5-5-8-5-5-8-5-5-8-5-3-3-4-5-|
D|-----------------------------|x5
A|-----------------------------|
E|-----------------------------|
I'm gone...

End:
E|----------------------------|
B|----------------------------|
G|-/15-12-x-10-10-10-10/8-12--|
D|----------------------------|
A|----------------------------|
E|----------------------------|

Easy
Pleas reate!
Tap to rate this tab
# A B C D E F G H I J K L M N O P Q R S T U V W X Y Z