Song name
# A B C D E F G H I J K L M N O P Q R S T U V W X Y Z

Rasmus - In The Schaddows tab

Help us improve GuitareTab! Take a short survey!
Band: The Rasmus
Title: In The Shadows
Album: Dead Letters

THE RASMUS  IN THE SHADOWS

Standard Tuning

**PM** - Palm muted
\ - slide sown (marked with "S")

Intro
E|----------------------------------------------------------------
B|----------------------------------------------------------------
G|----------------------------------------------------------------
D|----------------------------------------------------------------
A|--5-5-5-0-5-4-0-------------------4-50-5-4-0--------------
E|--------------------2220-2-4-5-7---------------2-2-4-4-5-----
Played quietly with a clean sound


E|----------------------------------------------------------------
B|----------------------------------------------------------------
G|----------------------------------------------------------------
D|----------------------------------------------------------------
A|--5-5-5-0-5-4-0-------------------4-50-5-4-0----------4-0-
E|--------------------2220-2-4-5-7---------------2-4-5-0-5-----
With distortion


E|----------------------------------------------------------------
B|----------------------------------------------------------------
G|----------------------------------------------------------------
D|----------------------------------------------------------------
A|--5-5-5-0-5-4-0-------------------4-50-5-4-0--------------
E|--------------------2220-2-4-5-7---------------2-2-222-2-----
With distortion


Verse 1
E|---------------------------------------------------------------------------
B|---------------------------------------------------------------------------
G|--7777777777777777--------------------4444444444444444--------------------- X3
D|--7777777777777777--4444444444444444--4444444444444444--4444444444444444---
A|--5555555555555555--4444444444444444--2222222222222222--4444444444444444---
E|--------------------2222222222222222--------------------2222222222222222---
    *******PM*******  *******PM*******  *******PM*******  *******PM*******  


E|---------------------------------------------------------------------------
B|---------------------------------------------------------------------------
G|--7777777777777777--------------------4444444444444444---------------------
D|--7777777777777777--4444444444444444--4444444444444444--4-3-2--------------
A|--5555555555555555--4444444444444444--2222222222222222--4-3-2--------------
E|--------------------2222222222222222--------------------2-1-0--------------
    *******PM*******  *******PM*******  *******PM*******    


Chorus 1
E|---------------------------------------------------------------------------
B|---------------------------------------------------------------------------
G|--7777777777777777--------------------4444444444444444--------------------- X2
D|--7777777777777777--4444444444444444--4444444444444444--4444444444444444---
A|--5555555555555555--4444444444444444--2222222222222222--4444444444444444---
E|--------------------2222222222222222--------------------2222222222222222---
With distortion


E|----------------------------------------------------------------
B|----------------------------------------------------------------
G|----------------------------------------------------------------
D|----------------------------------------------------------------
A|--5-5-5-0-5-4-0-------------------4-50-5-4-0----------4-0-
E|--------------------2220-2-4-5-7---------------2-4-5-0-5-----


E|----------------------------------------------------------------
B|----------------------------------------------------------------
G|----------------------------------------------------------------
D|----------------------------------------------------------------
A|--5-5-5-0-5-4-0-------------------4-50-5-4-0--------------
E|--------------------2220-2-4-5-7---------------2-2-4-4-5\----
                                                             s
                                                             
G|-----------
D|----------- ONLY BASS
A|--55-5-5--
E|-----------
  They say


Verse 2
E|---------------------------------------------------------------------------
B|---------------------------------------------------------------------------
G|--------------------4444444444444444---------------------------------------
D|--4444444444444444--4444444444444444--4444444444444444---------------------
A|--4444444444444444--2222222222222222--4444444444444444---------------------
E|--2222222222222222--------------------2222222222222222---------------------
    *******PM*******  *******PM*******  *******PM******* 



E|---------------------------------------------------------------------------
B|---------------------------------------------------------------------------
G|--7777777777777777--------------------4444444444444444--------------------- X2
D|--7777777777777777--4444444444444444--4444444444444444--4444444444444444---
A|--5555555555555555--4444444444444444--2222222222222222--4444444444444444---
E|--------------------2222222222222222--------------------2222222222222222---
    *******PM*******  *******PM*******  *******PM*******  *******PM*******  



E|---------------------------------------------------------------------------
B|---------------------------------------------------------------------------
G|--7777777777777777--------------------4444444444444444---------------------
D|--7777777777777777--4444444444444444--4444444444444444--4-3-2--------------
A|--5555555555555555--4444444444444444--2222222222222222--4-3-2--------------
E|--------------------2222222222222222--------------------2-1-0--------------
    *******PM*******  *******PM*******  *******PM*******  


Chorus 2
E|---------------------------------------------------------------------------
B|---------------------------------------------------------------------------
G|--7777777777777777--------------------4444444444444444--------------------- X2
D|--7777777777777777--4444444444444444--4444444444444444--4444444444444444---
A|--5555555555555555--4444444444444444--2222222222222222--4444444444444444---
E|--------------------2222222222222222--------------------2222222222222222---
With distortion


Verse 3
E|----------------------------------------------------------------------
B|----------------------------------------------------------------------
G|--77777777777777777777777777777777------------------------------------
D|--77777777777777777777777777777777-44444444444444444444444444444444--
A|--55555555555555555555555555555555-44444444444444444444444444444444--
E|------------------------------------22222222222222222222222222222222--
    *************PM*****************  ***************PM***************


E|----------------------------------------------------------------
B|----------------------------------------------------------------
G|----77777777777777777777777777777777----------------------------
D|----77777777777777777777777777777777-4444444444444444--4-3-2---
A|----55555555555555555555555555555555-4444444444444444--4-3-2---
E|--------------------------------------2222222222222222--2-1-0---
      **************PM****************  *******PM*******


Chorus 3
E|---------------------------------------------------------------------------
B|---------------------------------------------------------------------------
G|--7777777777777777--------------------4444444444444444--------------------- X4
D|--7777777777777777--4444444444444444--4444444444444444--4444444444444444---
A|--5555555555555555--4444444444444444--2222222222222222--4444444444444444---
E|--------------------2222222222222222--------------------2222222222222222---
With distortion


E|----------------------------------------------------------------
B|----------------------------------------------------------------
G|----------------------------------------------------------------
D|----------------------------------------------------------------
A|--5-5-5-0-5-4-0-------------------4-50-5-4-0----------4-0-
E|--------------------2220-2-4-5-7---------------2-4-5-0-5-----
With distortion


E|----------------------------------------------------------------
B|----------------------------------------------------------------
G|----------------------------------------------------------------
D|----------------------------------------------------------------
A|--5-5-5-0-5-4-0-------------------4-50-5-4-0--------------
E|--------------------2220-2-4-5-7---------------2-2-222-2-2---
With distortion


E|-----
B|-----
G|--7-
D|--7-
A|--5-
E|-----
With distortion


Related for In The Schaddows tab