Song name
# A B C D E F G H I J K L M N O P Q R S T U V W X Y Z

Rasmus - In The Shadows tab

-------------------------------------------------------------------------------
			     IN THE SHADOWS (First Version) - The Rasmus
-------------------------------------------------------------------------------
Tabbed by: Xabi


I don't usually make tabs, but I was at home wathcing the video and I came up with this 
to the song.

This is the first version of In The Shadows, featured in Live Letters DVD as a Hidden 
Also you can watch it in YouTube

Try this link ;)   http://www.youtube.com/watch?v=mN82NbrumV4   And also make 
 ;)


Tuning: Standard


Intro:

I think Pauli plays it in this way

e|-/12-10-9------------------------------------------------------------------|
B|----------12-10-9----9-10----10-9-10-9-------------------------------------|
G|------------------11-------------------11----------------------------------|
D|--------------------------11-----------------------------------------------| x3
A|---------------------------------------------------------------------------|
E|---------------------------------------------------------------------------|

e|-/12-10-9------------------------------------------------------------------|
B|----------12-10-9----9-10~ ------------------------------------------------|
G|------------------11-------------------------------------------------------|
D|---------------------------------------------------------------------------|
A|---------------------------------------------------------------------------|
E|---------------------------------------------------------------------------|


Another way to play it


e|-/12-10-9------------------------------------------------------------------|
B|----------12-10-9-7-9-10---10-9-10-9-7-------------------------------------|
G|-------------------------6-------------------------------------------------|
D|---------------------------------------------------------------------------| x3
A|---------------------------------------------------------------------------|
E|---------------------------------------------------------------------------|

e|-/12-10-9------------------------------------------------------------------|
B|----------12-10-9-7-9-10~ -------------------------------------------------|
G|---------------------------------------------------------------------------|
D|---------------------------------------------------------------------------|
A|---------------------------------------------------------------------------|
E|---------------------------------------------------------------------------|


Verse:
e|---------------------------------------------------------------------------|
B|--5~ 7~ -------------------------------------------------------------------|
G|----------4~ 6~ ----6~ 7~ -------------------------------------------------|
D|--------------------------- 6~ 7~ -----------------------------------------| x2
A|---------------------------------------------------------------------------|
E|---------------------------------------------------------------------------|

Then goes a fast hammer on - pull off part similar to this

e|-2p0 4p0 2p0 4p0 2p0 4p0 2p0 4p0 (few times) 5p0 2p0 5p0 2p0 ... ----------|
B|---------------------------------------------------------------------------|
G|---------------------------------------------------------------------------|
D|---------------------------------------------------------------------------|
A|---------------------------------------------------------------------------|
E|---------------------------------------------------------------------------|


Chorus: (Just like In The Shadows album version, strum this chords)
e|---------------------------------------------------------------------------|
B|---------------------------------------------------------------------------|
G|---7------------4----------------------------------------------------------|
D|---7------4-----4-----4----------------------------------------------------|
A|---5------4-----2-----4----------------------------------------------------| x2
E|----------2-----------2----------------------------------------------------|

THen he makes little modifications in the main riff by adding hammer on / pull offs 
Paulish) like

e|-/12-10-9h10p9-------------------------------------------------------------|
B|----------------12-10-9----9-10----10-9-10-9-------------------------------|
G|------------------------11-------------------11----------------------------|
D|--------------------------------11-----------------------------------------| x3
A|---------------------------------------------------------------------------|
E|---------------------------------------------------------------------------|


Also a few little modifications in the hammer on - pull offs part of the verse

| /  slide up
| \  slide down
| h  hammer-on
| p  pull-off
| ~  vibrato
| +  harmonic
| x  Mute note
===============================================================================
Tap to rate this tab
# A B C D E F G H I J K L M N O P Q R S T U V W X Y Z