Guitaretab - guitar tabs
Song name
# A B C D E F G H I J K L M N O P Q R S T U V W X Y Z

Rata Blanca - Blues tab

Ojala les sirva xP
soy joel nena: para mi princesa xD
****Siempre te Amare*****


Intro
e -----------------|
b -----------------|
g -----------------|
d ---2-------------|  x2
a --2-4~-4-2-------|
E -4--------4-2~---|

e ----------------------------|
b ----------------------------|
g ----------------------------|
d ---2----2-4/6-4~~-4---------|
a --2-4~-4--------------------|
E -4-----------------0-2-3-4~-|


C#m             F#m
Veo el infinito mirando tus ojos
B                 A        G#m
y voy a abrazarte con este blues...
C#m           F#m
soy un hombre, siempre amo tu piel
B                 A         G#m
loco y confundido cuando no estas. . . .

[ Tab from: http://www.guitaretab.com/r/rata-blanca/174540.html ]
E         G#m         F#m
Las horas no alcanzan cuando estamos juntos
C               D    E
el tiempo es veloz...
E       G#m     F#m
parecen eternos aquellos momentos
C               G#m
que me falta tu amor...


Solo hay sombras cuando no estas     sigue el intro
mi alma sola, habla de Blues...


Amo que me ames, nadie lo hace igual
tiemblas en mis brazos como una luz
y tu cuerpo es como la lluvia
que riega mi alma con su pasion


No hables hermosa
que otra cosa importa si estamos aqui???
La noche no es larga...
nunca es suficiente para hacerte el amor...

Solo hay sombras cuando no estas
mi alma sola, habla de Blues...

En el final repite varias veces

e ---------------|
b ---------------|
g ---------------|
d ---2-----------|
a --2-4~-4-2-----|
E -4--------4-2~-|
Related for Blues tab