Song name
# A B C D E F G H I J K L M N O P Q R S T U V W X Y Z

Raul Seixas - O Trem Das Sete chords

Highlighted       Show chord diagrams
Tom: D

(intro)  A9

(solo)

E|------------------7/9--7---75----------------------------5~---|
B|------5~-5/7--5-----------------7--5--------3/5----3----------|
G|---/6----------------------------------7--------------6-------|
D|--------------------------------------------------------------|
A|--------------------------------------------------------------|
E|--------------------------------------------------------------|



           A9                               D
E|-------0-----------|       E|--------2---------|
B|-------0-----0-----|       B|--------3-----3---|
G|-----2---2-----2---|       G|------2---2-----2-|
D|---2-------2-------|       D|----0-------0-----|
A|-0-----------------|       A|--0---------------|
E|-------------------|       E|------------------|



           E7                              A
E|-------0-----------|       E|--------0---------|
B|-------0-----0-----|       B|--------2-----2---|
G|-----1---1-----1---|       G|------2---2-----2-|
D|---0-------0-------|       D|----2-------2-----|
A|-2-----------------|       A|--0---------------|
E|-------------------|       E|------------------|



           E                              F#m
E|-------0-----------|       E|--------2---------|
B|-------0-----0-----|       B|--------2-----2---|
G|-----1---1-----1---|       G|------2---2-----2-|
D|---2-------2-------|       D|----4-------4-----|
A|-2-----------------|       A|--4---------------|
E|-------------------|       E|------------------|


   A9
i, i o trem, vem surgindo de trs das montanhas azuis, olha o trem
i, i o trem, vem trazendo de longe as cinzas do velho aeon

                  D                    E7                       A
i, j  vem, fumegando, apitando, chamando os que sabem do trem
i,  o trem, no precisa passagem nem mesmo bagagem no trem

              E               A
Quem vai chorar, quem vai sorrir ?
Quem vai ficar, quem vai partir ?
         E            A             E             A
Pois o trem est chegando, t chegando na estao
      E            A          E            A    
D        E
 o trem das sete horas,  o ltimo do serto,   do serto

A9
i, olha o cu, j no  o mesmo cu que voc conheceu, no  mais
V, i que cu,  um cu carregado e rajado, suspenso no ar

A9                 D                      E7                A
V,  o sinal,  o sinal das trombetas, dos anjos e dos guardies
i, l vem Deus, deslizando no cu entre brumas de mil megatons
                    D                       E7                  F#m
i, i o mal, vem de braos e abraos com o bem num romance astral
E    Am
A...mm
Tap to rate this tab
 
# A B C D E F G H I J K L M N O P Q R S T U V W X Y Z