Ray J - One Wish tab

e]-------5-2-0---0-----2-0-----|
B]-----3-------3-3-3-----3-3-0-|
G]-2/4-----------2---2---0-----|
D]---------------2-------2-----|
A]-----------------------2-----|
E]---------0-----2-------------|

e]-------5-2-----0---0-----0-2-0-------------|
B]-----3-----------3-3-3-------3-3-----------|
G]-2/4---------0-----2---2-----0---0---------|
D]-----------0-------2---------2-----0h2p0---|
A]-----------------------------2-----------2-|
E]---------0---------2-----------------------|

e]-------5-2---------0---0--------0--2-0---------------     -------5-2-|
B]-----3---------0-----3-3-3----3------3-3-0----------- E   -----3---3-|
G]-2/4---------0---0-----2---2---------0---------------  N  -2/4-----4-|
D]-----------0-----------2-------------2-----0h2p0---0-   D ---------4-|
A]-------------------------------------2-----------2---     -----------|
E]---------0-------------2----0------------------------     -----------|

Repeat the entire tab. end the song on the end note ^
No bridge included, make up your own.
Tap to rate this tab
 
# A B C D E F G H I J K L M N O P Q R S T U V W X Y Z