Song name
# A B C D E F G H I J K L M N O P Q R S T U V W X Y Z

Rea Chris - Texas tab

-------------------------------------------------------------------------------
			   Texas - Play Radio Play
-------------------------------------------------------------------------------
Tabbed by:Blinkrocks

Tuning:standard
Capo 5th fret

(strumming you'll have to figure out on your own)
e|---------------------|
B|------1---1----------|
G|------0-1-2-1-2-4----| repeat twice
D|------2-2-2-2-3-5----|
A|--0-2-3-2-0-2-3-5----|
E|-3------0---0-1-3----|
(Repeat how many time) (end song with C)
e|----------------3-|---0-|
B|------1-1-1-1---3-|---1-|
G|------0-0-0-0-4-0-|---0-|
D|------2-0-2-0-3-0-|---2-|
A|--0-2-3-2-0-2-3-2-|---3-|
E|-3----------0-1-3-|-----|

| /  slide up
| \  slide down
| h  hammer-on
| p  pull-off
| ~  vibrato
| +  harmonic
| x  Mute note
===============================================================================
Tap to rate this tab
 
# A B C D E F G H I J K L M N O P Q R S T U V W X Y Z