Song name
# A B C D E F G H I J K L M N O P Q R S T U V W X Y Z

Real Estate - Green River tab

e ---2---2---|
B ---3---3---|
G ---2---4---|
D ---0---0---|
A ---x---x---|
E ---x---x---|

e --0--0--0--|
B --2--2--5--|
G --0--0--6--|
D --2--4--7--|
A --0--0--0--|
E --x--x--x--|

e -2-2-2-----2-----2-----2-|
B -3-3-3-----3-----3-----3-|
G -2-2---4-4---2-2---------|
D -0-0---------------4-4---|
A -x-x---------------------|
E -x-x---------------------|

e -----2-----2-----3-----3-|
B -----3-----3-----2-----2-|
G -2-2---4-4---2-2---------|
D -------------------4-4---|
A -------------------------|
E -------------------------|
Tap to rate this tab
# A B C D E F G H I J K L M N O P Q R S T U V W X Y Z