Song name
# A B C D E F G H I J K L M N O P Q R S T U V W X Y Z

Real Mckenzies - Sailor Man tab

sailor man


the real mckenzies


TRANSCRIBED BY RUDY GUZMAN


guzman_84@hotmail.com




                                               
e:--------------------------------------------------------------|
B:-9--10-10-10-9--9--10-10-10-10-10-9--5-5-6-6-5-5--7-7-8-8-7-7-|
G:-9--9--9--9--9--9--9--9--9--9--9--9--5-5-5-5-5-5--7-7-7-7-7-7-|
D:-9--9--9--9--9--9--9--9--9--9--9--9--5-5-5-5-5-5--7-7-7-7-7-7-|
A:-7--7--7--7--7--7--7--7--7--7--7--7--3-3-3-3-3-3--5-5-5-5-5-5-|
E:--------------------------------------------------------------|

  verse
e:--------------------------------------------------------------|
B:-9--10-10-10-9--9--10-10-10-10-10-9--5-5-6-6-5-5--7-7-8-8-7-7-|
G:-9--9--9--9--9--9--9--9--9--9--9--9--5-5-5-5-5-5--7-7-7-7-7-7-|
D:-9--9--9--9--9--9--9--9--9--9--9--9--5-5-5-5-5-5--7-7-7-7-7-7-|
A:-7--7--7--7--7--7--7--7--7--7--7--7--3-3-3-3-3-3--5-5-5-5-5-5-|
E:--------------------------------------------------------------|


e:---------------------------------------------------|
B:---------------------------------------------------|
G:---------------------------9-9-9-9-9-9-9-9-9-9-9-9-|
D:-9--9-9-9-9--7--7-7-7-7-7--9-9-9-9-9-9-9-9-9-9-9-9-|
A:-9--9-9-9-9--7--7-7-7-7-7--7-7-7-7-7-7-7-7-7-7-7-7-|
E:-7--7-7-7-7--5--5-5-5-5-5--------------------------|

e:---------------------------------------------------|
B:---------------------------------------------------|
G:---------------------------12-12--10-10-9--9-9-9-9-|
D:-9--9-9-9-9--7--7-7-7-7-7--12-12--10-10-9--9-9-9-9-|
A:-9--9-9-9-9--7--7-7-7-7-7--10-10--8--8--7--7-7-7-7-|
E:-7--7-7-7-7--5--5-5-5-5-5--------------------------|

e:-------------------------------------------|
B:-------------------------------------------|
G:-----------------------------9-9-9-9-9-9-9-|
D:-9-10--10-10-10-10-10-10-10--9-9-9-9-9-9-9-|
A:-9-10--10-10-10-10-10-10-10--7-7-7-7-7-7-7-|
E:-7-8---8--8--8--8--8--8--8-----------------|

e:-------------------------------------------|
B:-------------------------------------------|
G:-----------------------------9-9-9-9-9-9-9-|
D:-9-10--10-10-10-10-10-10-10--9-9-9-9-9-9-9-|
A:-9-10--10-10-10-10-10-10-10--7-7-7-7-7-7-7-|
E:-7-8---8--8--8--8--8--8--8-----------------|

e:-----------------------------------------------------------|
B:-----------------------------------------------------------|
G:-----------------------------12-12--10-10-9--9-9-9-9-9-9-9-|
D:-9-10--10-10-10-10-10-10-10--12-12--10-10-9--9-9-9-9-9-9-9-|
A:-9-10--10-10-10-10-10-10-10--10-10--8--8--7--7-7-7-7-7-7-7-|
E:-7-8---8--8--8--8--8--8--8---------------------------------|

 verse
e:--------------------------------------------------------------|
B:-9--10-10-10-9--9--10-10-10-10-10-9--5-5-6-6-5-5--7-7-8-8-7-7-|
G:-9--9--9--9--9--9--9--9--9--9--9--9--5-5-5-5-5-5--7-7-7-7-7-7-|
D:-9--9--9--9--9--9--9--9--9--9--9--9--5-5-5-5-5-5--7-7-7-7-7-7-|
A:-7--7--7--7--7--7--7--7--7--7--7--7--3-3-3-3-3-3--5-5-5-5-5-5-|
E:--------------------------------------------------------------|


e:---------------------------------------------------|
B:---------------------------------------------------|
G:---------------------------9-9-9-9-9-9-9-9-9-9-9-9-|
D:-9--9-9-9-9--7--7-7-7-7-7--9-9-9-9-9-9-9-9-9-9-9-9-|
A:-9--9-9-9-9--7--7-7-7-7-7--7-7-7-7-7-7-7-7-7-7-7-7-|
E:-7--7-7-7-7--5--5-5-5-5-5--------------------------|

e:---------------------------------------------------|
B:---------------------------------------------------|
G:---------------------------12-12--10-10-9--9-9-9-9-|
D:-9--9-9-9-9--7--7-7-7-7-7--12-12--10-10-9--9-9-9-9-|
A:-9--9-9-9-9--7--7-7-7-7-7--10-10--8--8--7--7-7-7-7-|
E:-7--7-7-7-7--5--5-5-5-5-5--------------------------|

e:-------------------------------------------|
B:-------------------------------------------|
G:-----------------------------9-9-9-9-9-9-9-|
D:-9-10--10-10-10-10-10-10-10--9-9-9-9-9-9-9-|
A:-9-10--10-10-10-10-10-10-10--7-7-7-7-7-7-7-|
E:-7-8---8--8--8--8--8--8--8-----------------|

e:-------------------------------------------|
B:-------------------------------------------|
G:-----------------------------9-9-9-9-9-9-9-|
D:-9-10--10-10-10-10-10-10-10--9-9-9-9-9-9-9-|
A:-9-10--10-10-10-10-10-10-10--7-7-7-7-7-7-7-|
E:-7-8---8--8--8--8--8--8--8-----------------|

e:-----------------------------------------------------------|
B:-----------------------------------------------------------|
G:-----------------------------12-12--10-10-9--9-9-9-9-9-9-9-|
D:-9-10--10-10-10-10-10-10-10--12-12--10-10-9--9-9-9-9-9-9-9-|
A:-9-10--10-10-10-10-10-10-10--10-10--8--8--7--7-7-7-7-7-7-7-|
E:-7-8---8--8--8--8--8--8--8---------------------------------|


e:-------------------------------------------|
B:-------------------------------------------|
G:-----------------------------9-9-9-9-9-9-9-|
D:-9-10--10-10-10-10-10-10-10--9-9-9-9-9-9-9-|
A:-9-10--10-10-10-10-10-10-10--7-7-7-7-7-7-7-|
E:-7-8---8--8--8--8--8--8--8-----------------|

e:-------------------------------------------|
B:-------------------------------------------|
G:-----------------------------9-9-9-9-9-9-9-|
D:-9-10--10-10-10-10-10-10-10--9-9-9-9-9-9-9-|
A:-9-10--10-10-10-10-10-10-10--7-7-7-7-7-7-7-|
E:-7-8---8--8--8--8--8--8--8-----------------|

e:-----------------------------------------------------------|
B:-----------------------------------------------------------|
G:-----------------------------12-12--10-10-9--9-9-9-9-9-9-9-|
D:-9-10--10-10-10-10-10-10-10--12-12--10-10-9--9-9-9-9-9-9-9-|
A:-9-10--10-10-10-10-10-10-10--10-10--8--8--7--7-7-7-7-7-7-7-|
E:-7-8---8--8--8--8--8--8--8---------------------------------|


hillo son mex

25/08/11
Tap to rate this tab
# A B C D E F G H I J K L M N O P Q R S T U V W X Y Z