Song name
# A B C D E F G H I J K L M N O P Q R S T U V W X Y Z

Reality Addiction - Here With Me tab

Here With Me-Reality Addiction


Tuning: Standard Capo 4th fret

The song is a little difficult but if you practice you will get it. This is only the
rhythm guitar part I havent really looked at the lead yet but hope this helps. Listen to
the song as you learn the changes in the chorus are quick. You can also strum the pre 
chorus I pick it but if you strum it you can hammer on with your pointer finger to give it
that pop effect both sound good.

 chords used: G Cadd9  Dadd11  Em7
              3  3      3       3
              3  3      3       3
              0  0      2       0
              0  2      0       2
              2  3      0       2
              3  x      2       0
Intro

e|-----3-----------------------------------------|
B|-------------3-3/5p0-------0-------------------|
G|-----------------------------------2-2/4p0-----|
D|-----------------------------------------------|
A|-2/3----2/3------------------------------------|
E|----------------------2/3-----2/3--------------|

e|------3-----------------------------------|
B|--------------3-3/5p0--------0------------|
G|--------------------------------2---------|
D|------------------------------------------|
A|-2/3-----2/3------------------------------|
E|------------------------2/3-----3---------|

Verse

e|------3---------------------------------------------|
B|--------------3-3/5p0-------0-----------------------|
G|------------------------------------2-2/4p0---------| X8
D|----------------------------------------------------|
A|-2/3-----2/3----------------------------------------|
E|-----------------------2/3-----2/3------------------|

Pre Chorus

    Em7          Dadd11       G             Cadd9
e|-------3-------------3-------------3-------------3------------------|
B|---------3---3---------3---3---------3---3---------3---3------------|
G|-----------------------------------------------0--------------------|
D|-----2-------------0-------------0-----------2----------------------|
A|---2-------2-----0-------0-----2-------2---3---------3--------------|
E|-0-------------2-------------3--------------------------------------|

   Em7          Dadd11        G             Cadd9          Cadd9
e|-------3-------------3-------------3-------------3-------3-3-3-3------|
B|---------3---3---------3---3---------3---3---------3---3-3-3-3-3------|
G|-----------------------------------------------0---------0-0-0-0------|
D|-----2-------------0-------------0-----------2-----------2-2-2-2------|
A|---2-------2-----0-------0-----2-------2---3---------3---3-3-3-3------|
E|-0-------------2-------------3----------------------------------------|
                                                           [--x2--------|
Chorus
   Em7     Cadd9           G       Dadd11
e|-3-3-3-3-3-3-3-3-3-3-3-3-3-3-3-3-3-3-3-3-3-3-3-3------|
B|-3-3-3-3-3-3-3-3-3-3-3-3-3-3-3-3-3-3-3-3-3-3-3-3------|
G|-0-0-0-0-0-0-0-0-0-0-0-0-0-0-0-0-2-2-2-2-2-2-2-2------|  x4
D|-2-2-2-2-2-2-2-2-2-2-2-2-0-0-0-0-0-0-0-0-0-0-0-0------|
A|-2-2-2-2-3-3-3-3-3-3-3-3-2-2-2-2-0-0-0-0-0-0-0-0------|
E|-0-0-0-0-----------------3-3-3-3-2-2-2-2-2-2-2-2------|

Interlude

e|-----3--------------------------|
B|-----------3-3/5p0-----0--------|
G|-------------------------2------|
D|--------------------------------|
A|-2/3---2/3----------------------|
E|-------------------2/3---3------|

Repeat Verse Pre Chorus and Chorus

Bridge

   Em7             Dadd11          G               Cadd9
e|-3-3-3-3-3-3-3-3-3-3-3-3-3-3-3-3-3-3-3-3-3-3-3-3-3-3-3-3-3-3-3-3----|
B|-3-3-3-3-3-3-3-3-3-3-3-3-3-3-3-3-3-3-3-3-3-3-3-3-3-3-3-3-3-3-3-3----|
G|-0-0-0-0-0-0-0-0-2-2-2-2-2-2-2-2-0-0-0-0-0-0-0-0-0-0-0-0-0-0-0-0----|
D|-2-2-2-2-2-2-2-2-0-0-0-0-0-0-0-0-0-0-0-0-0-0-0-0-2-2-2-2-2-2-2-2----|
A|-2-2-2-2-2-2-2-2-0-0-0-0-0-0-0-0-2-2-2-2-2-2-2-2-3-3-3-3-3-3-3-3----|
E|-0-0-0-0-0-0-0-0-2-2-2-2-2-2-2-2-3-3-3-3-3-3-3-3--------------------|
   Em7             Dadd11          G               Cadd9
e|-3-3-3-3-3-3-3-3-3-3-3-3-3-3-3-3-3-3-3-3-3-3-3-3-3--|
B|-3-3-3-3-3-3-3-3-3-3-3-3-3-3-3-3-3-3-3-3-3-3-3-3-3--|
G|-0-0-0-0-0-0-0-0-2-2-2-2-2-2-2-2-0-0-0-0-0-0-0-0-0--|
D|-2-2-2-2-2-2-2-2-0-0-0-0-0-0-0-0-0-0-0-0-0-0-0-0-2--|
A|-2-2-2-2-2-2-2-2-0-0-0-0-0-0-0-0-2-2-2-2-2-2-2-2-3--|
E|-0-0-0-0-0-0-0-0-2-2-2-2-2-2-2-2-3-3-3-3-3-3-3-3----|

Solo Chord pattern is the same as the chorus so repeat that to the end.


************************************

| /   slide up
| \   slide down
| h   hammer-on
| p   pull-off
| ~   vibrato
| +   harmonic
| x   Mute note
| b   Bend
| pb  Pre-bend
| br  Bend release
| pbr Pre-bend release
| brb Bend release bend

************************************
Tap to rate this tab
# A B C D E F G H I J K L M N O P Q R S T U V W X Y Z