Guitaretab - guitar tabs
Song name
# A B C D E F G H I J K L M N O P Q R S T U V W X Y Z

Reap - Revelation tab

The Autumn Offering
Revelations
Revelations of the Unsung
Drop C tuning: CGCFAd

This is more than an intro but itís not the full song. The
timingís not labeled, so itíd help if you listened along to
the song. I added riff times to try to make it a bit easier
to understand.

Intro
Gtr 1 (0:00) x2
d|--------------------------------------------------------|
A|-8t-------------11t-10t--8t------------11t--------------|
F|-xt-------------xt--xt---xt-------------xt--------------|
C|-5t-------------8t--7t---5t------------8t-333-333-33-3-3|
G|------------------------------------------333-333-33-3-3|
C|------------------------------------------333-333-33-3-3|
                                            ... ... .. PM|
Gtr 2 (0:00) x2
d|-----5------------------------5--------------------------|
A|-8~----8-------11~--------8~----8-------11~--------------|
F|-7~------7-----10~---5~---7-------7-----10~--------------|
C|-5~-====(5)-55-8~----3~---5~-====(5)-55-8~-333-333-33-3-3|
G|-5~-====(5)-55-8~----3~---5~-====(5)-55-8~-333-333-33-3-3|
C|-5~-====(5)-55-8~----3~---5~-====(5)-55-8~-333-333-33-3-3|
              ..                       ..   ... ... .. PM|
The second time this is layered in (0:19):
d|--------------------------------------------------|
A|--------------------------------------------------|
F|-----------------------3--------------------------|
C|---------------------5---5-3-5~-------------------|
G|--------------------------------------------------|
C|--------------------------------------------------|

Verse (0:27)
Gtr 1
d|---------------------------------------------------------|
A|---------------------------------------------------------|
F|-------------7-------5--------------------------3--------|
C|-5-7---8-5-------8-------7\-1-5-3---3-5--3--3-5---5-3----|
G|-5--------------------------1-----5------3---------------|
C|-5---5-----5---5---5---5----1------------3---------------|
       .     .   .   .   .                             PM|
Gtr 2
d|---------------------------------------------------------|
A|---------------------------------------------------------|
F|---------------------------------------------------------|
C|-5--------------------------1~-----------3~--------------|
G|-5--------------------------1~-----------3~--------------|
C|-5--------------------------1~-----------3~--------------|
[ Tab from: http://www.guitaretab.com/r/reap/135924.html ]
Gtr 1
d|--------------------------------------------------|
A|--------------------------------------------------|
F|-------------7~-----5~----------------------------|
C|-5-8-7-5-7-8----7------7-----1-5---5p3---5/7------|
G|-5----------------8------8-5-1---------------8~---|
C|-5---------------------------1---1-----1----------|
                                   .     .        PM|
Gtr 2
d|--------------------------------------------------|
A|-------------6~-----4~----------------------------|
F|---7-5---5-7----5------3-------3---3p2---3/5------|
C|-5-----6----------7------5-3-1---------------7~---|
G|-5---------------------------1--------------------|
C|-5---------------------------1---1-----1----------|
                                   .     .        PM|
Gtr 1
d|---------------------------------------------------------|
A|---------------------------------------------------------|
F|-------------7-------5--------------------------3--------|
C|-5-7---8-5-------8-------7\-1-5-3---3-5--3--3-5---5-3----|
G|-5--------------------------1-----5------3---------------|
C|-5---5-----5---5---5---5----1------------3---------------|
       .     .   .   .   .                             PM|
Gtr 2
d|---------------------------------------------------------|
A|---------------------------------------------------------|
F|---5---7-----6----------------3-2---2-3-------7----------|
C|-5-------8-------7---8---5\-1-----3-----3-7-8---8-7------|
G|-5--------------------------1-----------3----------------|
C|-5---5-----5---5---5---5----1-----------3----------------|
       .     .   .   .   .                             PM|
Gtr 1
d|----------------------------------------------------|
A|----------------------------------------------------|
F|-------------7~-----5~------------------5-5/7~-7-7\-|
C|-5-8-7-5-7-8----7------7-----1-5---5p3--------------|
G|-5----------------8------8-5-1----------------------|
C|-5---------------------------1---1-----1------------|
                                   .     .          PM|
Gtr 2
d|----------------------------------------------------|
A|-------------6~-----4~------------------4-4/6~-6-6\-|
F|---7-5---5-7----5------3-------3---3p2--------------|
C|-5-----6----------7------5-3-1----------------------|
G|-5---------------------------1----------------------|
C|-5---------------------------1---1-----1------------|
                                   .     .          PM|
Gtr 1 (0:44)
d|---------------------------------------------------------|
A|---------------------------------------------------------|
F|-7~---------------5~--------------3~---------------------|
C|-5~---------------3~--------------1~--------5----5-5---7-|
G|-5~---------------3~--------------1~--------x----x-x---x-|
C|--------------------------------------------5----5-5---7-|

Gtr 2 Itís really hard to make this out. I did my best...
d|---------------------------------------------------------|
A|---------------------------------------------------------|
F|---------------------------------------------------------|
C|---------------------------------------------------------|
G|-8-8-10-8-8-8-10-8-7-7-8-7-7-7-8-7-55555555-3333-2222--3-|
C|---------------------------------------------------------|
   . .    . . .    . . .   . . .   .                   PM|
These notes arenít exact; theyíre tremolo picked ^^^ and the
5ís are twice as long as the threes and twos.

Gtr 1 Fill (0:49)
d|--------------------------------------------------|
A|--------------------------------------------------|
F|-----------7~-5h7p5-2-3h5p3-5-3-------------------|
C|-5-7---8-5----------------------/5-3-2-3----------|
G|-5------------------------------------------------|
C|-5---5--------------------------------------------|

I donít have a lot of experience with acoustic, so I donít
have 0:53-1:01

Both Guitars (1:02)
d|-------------------|------------------------------|
A|-------------------|---At the end of the second---|
F|---------------    |---------time:----------------|
C|1~----3~----5~- x4 |------------------------------|
G|1~----3~----5~-    |-----/5-3h5p3-----------------|
C|1~----3~----5~-----|------------------------------|

Chorus (DIVIDE...CONQUER...PILLAGE...DESTROY) (2:08)
d|--------------------------------------------------|
A|--------------------------------------------------|
F|--------------------------------------------------|
C|-5~-------7~----7~--7/8-8~---8/10~---12-\\\-------|
G|----------------------------------------\\\-pick--|
C|----------------------------------------\\\--slide|
(2:17)
d|-----------------------------------------------------|
A|-----------------------------------------------------|
F|---5---5h7p5-------------5---5---5h7p5-8---7---5-----|
C|-5-----------5---7---8-----3-----------------------7\|
G|-5-------------------------3-------------------------|
C|-5---5---------0---0---0---3---0---------0---0---0---|
       .         .   .   .       .         .   .   . PM|
d|--------------------------------------------------|
A|--------------------------------------------------|
F|--------------------------------------------------|
C|-5\3-5------5\3-5------5\3-5------5\3-5-----------|
G|-5\3-5------5\3-5------5\3-5------5\3-5-----------|
C|-5\3-5--000-5\3-5--000-5\3-5--000-5\3-5--000------|
          ...        ...        ...        ...    PM|
Repeat the above two once
(2:35)
d|--------------------------------------------------|
A|--------------------------------------------------|
F|---777555777---------555---777555777888777555-----|
C|-5----------555777888------------------------777--|
G|-5------------------------------------------------|
C|-5----------------------333-----------------------|

d|--------------------------------------------------|
A|--------------------------------------------------|
F|--------------------------------------------------|
C|-5\3-5------5\3-5------5\3-5------5\3-5-----------|
G|-5\3-5------5\3-5------5\3-5------5\3-5-----------|
C|-5\3-5--000-5\3-5--000-5\3-5--000-5\3-5--000------|
          ...        ...        ...        ...    PM|
d|--------------------------------------------------|
A|--------------------------------------------------|
F|---777555777---------555---777555777888777555-----|
C|-5----------555777888------------------------777--|
G|-5------------------------------------------------|
C|-5----------------------333-----------------------|

d|--------------------------------------------------|
A|--------------------------------------------------|
F|-------7-5----------------------------------------|
C|--8-88-----8-7-77-777\----------------------------|
G|--------------------------------------------------|
C|--------------------------------------------------|

I know, Iím skipping stuff...but this has gotta be five
stars for an INTRO tab, right?




Basically, all Iíve done is improved on the existing intro,
which was well-tabbed by cheez1492, and added a bit onto it.
I donít have enough experience to finish the tab, but I hope
somebody does soon, because this is a pretty awesome song.
Related for Revelation tab