Song name
# A B C D E F G H I J K L M N O P Q R S T U V W X Y Z

Rearranged - Breath tab

-------------------------------------------------|
-------------------------------------------------|
-------------------------------------------------|
--7-7-7-7----------------------------------------|
--5-5-5-5---8-8-8-8---10-10-10-10---7-7-7-7------|
------------6-8-6-6----8--8--8--8---5-5-5-5------|
Guitar 1

--------------------------------------------------|
--------------------------------------------------|
--2-2-2-2---3-3-3-5---2-2-2-2------3-3-3-5----2---|
--0-0-0-0---0-0-0-0---0-0-0-0-------0-0-0-0-----0-|
--------------------------------------------------|
--------------------------------------------------|
Guitar 2 w/ no pick

INTRO ONLY!!!!!!!!!!!!!!!!!!!1 PLAY 4 TIMES!!!
Tap to rate this tab
# A B C D E F G H I J K L M N O P Q R S T U V W X Y Z