Song name
# A B C D E F G H I J K L M N O P Q R S T U V W X Y Z

Rebellion - Sweden tab

-------------------------------------------------------------------------------
			    SWEDEN - REBELLION
-------------------------------------------------------------------------------
REBELLION
Sweden
From: Miklagard (2007)

Tabbed by:malpka

Tuning: DADGBe


INTRO:
[FIG: 1]
e|----------------------------|----------------------------|
B|----------------------------|----------------------------|
G|----------------------------|----------------------------|
D|----------------------------|----------------------------|
A|--3-5--3-5--3-5--3-5---6-5--|--3-5--3-5--3-5--3-5---6-5--|
E|----------------------------|----------------------------|

e|----------------------------|----------------------------|
B|----------------------------|----------------------------|
G|----------------------------|----------------------------|
D|----------------------------|----------------------------|
A|--3-5--3-5--3-5--3-5---6-5--|-3-5--3-5--3-5--3-5---------|
E|----------------------------|--------------------0-0-0-0-|


VERSE 1:
[FIG: 2]
  Father,                  I've found a ship to take me away
e|------------------------|------------------------|
B|------------------------|------------------------|
G|-7--------------------7-|-7--------------------7-|
D|-7--------------------7-|-8--------------------8-|
A|-5--------------------5-|-5--------------------5-|
E|-0----------------------|------------------------|

 Pack my box, get me ready No time to waste astray
e|------------------------|------------------------|
B|------------------------|------------------------|
G|-7---------7-5--------5-|-3----------------------|
D|-7---------7-5--------5-|-3----------------------|
A|-5---------5-3--------3-|-1----------------------|
E|------------------------|------------------------|

  Father,                  In a week I will be gone
e|------------------------|------------------------|
B|------------------------|------------------------|
G|-7--------------------7-|-7--------------------7-|
D|-7--------------------7-|-8--------------------8-|
A|-5--------------------5-|-5--------------------5-|
E|-0----------------------|------------------------|

 To Miklagard on dragon's wings There's riches to be won
e|------------------------|------------------------|
B|------------------------|------------------------|
G|-7---------7-5--------5-|-3----------------------|
D|-7---------7-5--------5-|-3----------------------|
A|-5---------5-3--------3-|-1----------------------|
E|------------------------|------------------------|


PRE-CHORUS:
[FIG: 3]
               To Upsala            Odin and Thor
e|------------------------|------------------------|
B|------------------------|------------------------|
G|------------------------|------------------------|
D|------------------------|------------------------|
A|------------------------|------------------------|
E|------------------------|------------------------|

 May they guard my way Where I've never walked before
e|------------------------|------------------------|
B|------------------------|------------------------|
G|------------------------|------------------------|
D|------------------------|------------------------|
A|------------------------|------------------------|
E|------------------------|------------------------|



CHORUS:
[FIG: 4]
  Sweden, oh Sweden        My Fatherland my home
e|------------------------|------------------------|
B|------------------------|------------------------|
G|-7--------------------7-|-5--------------------5-|
D|-7--------------------7-|-5--------------------5-|
A|-5--------------------5-|-3--------------------3-|
E|------------------------|------------------------|

  I pray to see your shores again Tomorrow I'll be gone
e|------------------------|------------------------|
B|------------------------|------------------------|
G|-3--------------------3-|-2----------------------|
D|-3--------------------3-|-2----------------------|
A|-1--------------------1-|-0----------------------|
E|------------------------|--------3-3-3-3-5-5-5-5-|

  Sweden, oh Sweden     Heathen stronghold in the black
e|------------------------|------------------------|
B|------------------------|------------------------|
G|-7--------------------7-|-5--------------------5-|
D|-7--------------------7-|-5--------------------5-|
A|-5--------------------5-|-3--------------------3-|
E|------------------------|------------------------|

 Odin walks amidst your trees May He guide me back
e|------------------------|------------------------|
B|------------------------|------------------------|
G|-3--------------------3-|-2----------------------|
D|-3--------------------3-|-2----------------------|
A|-1--------------------1-|-0----------------------|
E|------------------------|--------3-3-3-3-5-5-5-5-|



VERSE:
[FIG: 5]
 I saw an old man passing by       Under his cloak the flicker of an eye
e|---------------------------------|---------------------------------|
B|---------------------------------|---------------------------------|
G|-7-----------------------------7-|-5-----------------------------5-|
D|-7-----------------------------7-|-5-----------------------------5-|
A|-5-5-5-5-5-5-5-5-5-5-5-5-5-5-5-5-|-3-3-3-3-3-3-3-3-3-3-3-3-3-3-3-3-|
E|---------------------------------|---------------------------------|

   As I turned to ask his name     He was gone just as he came
e|---------------------------------|---------------------------------|
B|---------------------------------|---------------------------------|
G|-3-----------------------------3-|-2-------------------------------|
D|-3-----------------------------3-|-2--------3--3--3--3--5--5--5--5-|
A|-1-1-1-1-1-1-1-1-1-1-1-1-1-1-1-1-|-0-0-0-0--3--3--3--3--5--5--5--5-|
E|---------------------------------|----------3--3--3--3--5--5--5--5-|

   I know I'm not alone            He will watch me far from home
e|---------------------------------|---------------------------------|
B|---------------------------------|---------------------------------|
G|-7-----------------------------7-|-5-----------------------------5-|
D|-7-----------------------------7-|-5-----------------------------5-|
A|-5-5-5-5-5-5-5-5-5-5-5-5-5-5-5-5-|-3-3-3-3-3-3-3-3-3-3-3-3-3-3-3-3-|
E|---------------------------------|---------------------------------|

   And his wisdom be the light    And his courage in the fight
e|---------------------------------|---------------------------------|
B|---------------------------------|---------------------------------|
G|-3-----------------------------3-|-2-------------------------------|
D|-3-----------------------------3-|-2--------3--3--3--3--5--5--5--5-|
A|-1-1-1-1-1-1-1-1-1-1-1-1-1-1-1-1-|-0-0-0-0--3--3--3--3--5--5--5--5-|
E|---------------------------------|----------3--3--3--3--5--5--5--5-|


VERSE:
[FIG: 2]
Odin, To Upsala I shall come
To honour you with sacrifice As it must be done
Oh, Odin, I raise my hands to thee and pray
Give me strength and wisdom, there'll be dangers in my way

PRE-CHORUS:
[FIG: 3]

CHORUS:
[FIG: 4]

SOLO:
[FIG: 2]

[FIG: 3]


OUTRO:
e|-----------------------------------|-----------------------------------|
B|-----------------------------------|-----------------------------------|
G|-------3---------------------------|-------5---------------------------|
D|-------3---3-----3-----3-----3-----|-------5---5-----5-----5-----5-----|
A|-0-----1---1-1-1-1-1-1-1-1-1-1-1-1-|-3-----3---3-3-3-3-3-3-3-3-3-3-3-3-|
E|-0--0------------------------------|-3--3------------------------------|


e|-----------------------------------|-----------------------------------|
B|-----------------------------------|-----------------------------------|
G|-------3---------------------------|-----------------------------------|
D|-------3---3-----3-----3-----3-----|-------5---------3------------0----|
A|-0-----1---1-1-1-1-1-1-1-1-1-1-1-1-|-3-----5---0-----3---3--5--3--0----|
E|-0--0------------------------------|-3--3--5---0--0--3---3--5--3--0----|



| /  slide up
| \  slide down
| h  hammer-on
| p  pull-off
| ~  vibrato
| +  harmonic
| x  Mute note
===============================================================================

Tap to rate this tab
# A B C D E F G H I J K L M N O P Q R S T U V W X Y Z