Rebelution - So High tab

-----------------------------------------------------------------
So High - Rebelution
-----------------------------------------------------------------
Tabbed by: Brian Zucker
Email: bnzucker@comcast.net
Tuning: Standard
e|---------------------------------------------------------------|
B|------14----------15-14-15-------------17-17-15-14-------------|
G|--11-----------------------------------------------------------|
D|---------------------------------------------------------------|
A|---------------------------------------------------------------|
E|---------------------------------------------------------------|

e|---------------------------------------------------------------|
B|------14----------15-14-15-------------------------------------|
G|--11-----------------------------------------------------------|
D|---------------------------------------------------------------|
A|---------------------------------------------------------------|
E|---------------------------------------------------------------|
chords
   F#m          Bm
e|--2--2--2--2---2--2--2--2--------------------------------------|
B|--2--2--2--2---3--3--3--3--------------------------------------|
G|--2--2--2--2---4--4--4--4--------------------------------------|
D|--4--4--4--4---4--4--4--4--------------------------------------|
A|--4--4--4--4---2--2--2--2--------------------------------------|
E|--2--2--2--2---x--x--x--x--------------------------------------|
Tap to rate this tab
 
# A B C D E F G H I J K L M N O P Q R S T U V W X Y Z