Song name
# A B C D E F G H I J K L M N O P Q R S T U V W X Y Z

Rebelution - Closer I Get tab

Dont know what tuning.

This is for the beginning part and the chords for the song. I will put the rest of it up 
wen i can figure it out.

Intro:

E|-------------------|
B|-----------3--5-2--|
G|-------3h5---------|
D|-----3-------------|
A|-3/5---------------|
E|-------------------|

^---You can play tht part through out the whole song just get the timing down
______________________________________________________________________________

Chords:First set

Fm A#m Cm
E|-1----1----3----|
B|-1----2----4----|
G|-1----3----5----|
D|-3----3----5----|
A|-3----1----3----|
E|-1----1----3----|

Fm--Fm--A#m--Cm
^^This is the beat with reggae strums
You play these chords through the whole song til the last 4 lines of the lyrics. Then 
the chords change up.

Chords:Second set

C# G# Cm Fm
E|-4---4---3---1--|
B|-6---4---4---1--|
G|-6---5---5---1--|
D|-6---6---5---3--|
A|-4---6---3---3--|
E|-----4---3---1--|

C# C# G# Cm Fm
Yes I found my own way out
Fm C# G#
Im going all the way down
C# C# G# Cm Fm
Until the people all find out
Fm C# G#
Their going all the way down
_____________________________________________________________________________
Then comes the Harmonica part where u play the intro part behind it.
Tap to rate this tab
 
# A B C D E F G H I J K L M N O P Q R S T U V W X Y Z