Song name
# A B C D E F G H I J K L M N O P Q R S T U V W X Y Z

Red Fang - Prehistoric Dog tab

Sorry about this. It saved without me knowing, and I don't know how to edit it. Here's 
the right way...


d-----------------------------------------------------------------|
B-----------------------------------------------------------------|
G------------------------16-16~~~~---16---------------------------|
D------------12-14 -16h19---------------19-16-14p12---------------| X3
A---14~---14-----------------------------------------14-14~~~~----|
D-----------------------------------------------------------------|

e--------------------------------------------------------------|
B--------------------------------------------------------------|
G-------------------------16^16^---18^18^----------------------|
D------------12-14-16h19---------------------------------------|
A---14~---14---------------------------------------------------|
D--------------------------------------------------------------|

e--------------------------------------------------------------|
B--------------------------------------------------------------|
G------------------11------------------------------------------|
D------------12-14----14-12-12h14~~~--12h14p12----12-----------|
A---14~---14-----------------------------------14----14-12h14--| X2
D--------------------------------------------------------------|
Tap to rate this tab
# A B C D E F G H I J K L M N O P Q R S T U V W X Y Z