Song name
# A B C D E F G H I J K L M N O P Q R S T U V W X Y Z

Red Hot Chili Peppers - Organic Anti-beat Box Band tab

Red Hot Chili Peppers
Organic Anti-Beat Box Band
The Uplift Mofo Party Plan [1987]


Intro

e------------------|----------------------------------|
B------------------|----------------------------------|
G-9~---------------|----------------------------------|
D-9~---------------|----------------------------------|
A-7~---------------|----------------------------------|
E-0~---------------|--0-0-0-0-0-0-0-0-0-0-0-0-0-0-0-0-|
                   pm . . . . . . . . . . . . . . . .


Verse [play four times]

e-----------------------------|-------------------------------------|
B-----------------------------|-------------------------------------|
G-----------------------------|-------------------------------------|
D------------------5-----5~~--|------------------x-5--x--7----------|
A------------------5-----5~~--|------------------x-5--x--7----------|
E--0-0-0-0-0-0-0-0-----0------|-0-0-0-0-0-0-0-0--x-3--x--5----------|
pm . . . . . . . .     .        . . . . . . . .


e-----------------------------|------------------------------------|
B-----------------------------|------------------------------------|
G-----------------------------|------------------------------------|
D------------------5-----5~~--|---------------------8--7--5--------|
A------------------5-----5~~--|---------------------8--7--5--------|
E--0-0-0-0-0-0-0-0-----0------|-0-0-0-0-0-0-0-0-0-0-6--5--3--------|
pm . . . . . . . .     .        . . . . . . . . . .

Chorus

we represent the hollywood kids    hollywood is where we live
e--------------------------------|--------------------------------|
B--------------------------------|--------------------------------|
G--------------------------------|--------------------------------|
D--7/9--------7/9----------------|--7/9--------7/9----------------|
A--7/9--------7/9----------------|--7/9--------7/9----------------|
E--5/7--------5/7----------------|--5/7--------5/7----------------|

we represent the hollywood jams    organic anti-beat box band
e--------------------------------|--------------------------------|
B--------------------------------|--------------------------------|
G--------------------------------|--7/9--------7/9----------------|
D--10/12-------10/12-------------|--7/9--------7/9----------------|
A--10/12-------10/12-------------|--5/7--------5/7----------------|
E--8/10--------8/10--------------|--------------------------------|


Verse 2[play four times]

e------------------------|----------------------------------|
B------------------------|----------------------------------|
G--9~~-------------------|-9~~------------------------------|
D--9~~--------5-----5~~--|-9~~-----------x-5--x--7----------|
A--7~~--------5-----5~~--|-7~~-----------x-5--x--7----------|
E--0~~------------0------|-0~~-----------x-3--x--5----------|


e------------------------|----------------------------------|
B------------------------|----------------------------------|
G--9~~-------------------|-9~~------------------------------|
D--9~~--------5-----5~~--|-9~~-----------------8--7--5------|
A--7~~--------5-----5~~--|-7~~-----------------8--7--5------|
E--0~~------------0------|-0~~-----------------6--5--3------|


repeat chorus

then play the first verse riff twice

for the solo, improvise using the e minor blues scale
it's what hillel did [hehehe]

Rhythm Guitar during Solo [play four times]

e-------------------------------------|
B-------------------------------------|
G-------------------------------------|
D---11-9---7--6---4--2--2--4------2---|
A---9--7---5--4---2--0--0--2--2---0---|
E-----------------------------3-------|

Verse 3 [play four times]

e-----------------------------|-------------------------------------|
B-----------------------------|-------------------------------------|
G-----------------------------|-------------------------------------|
D------------------5-----5~~--|------------------x-5--x--7----------|
A------------------5-----5~~--|------------------x-5--x--7----------|
E--0-0-0-0-0-0-0-0-----0------|-0-0-0-0-0-0-0-0--x-3--x--5----------|
pm . . . . . . . .     .        . . . . . . . .


e-----------------------------|------------------------------------|
B-----------------------------|------------------------------------|
G-----------------------------|------------------------------------|
D------------------5-----5~~--|---------------------8--7--5--------|
A------------------5-----5~~--|---------------------8--7--5--------|
E--0-0-0-0-0-0-0-0-----0------|-0-0-0-0-0-0-0-0-0-0-6--5--3--------|
pm . . . . . . . .     .        . . . . . . . . . .


Extended Chorus

we represent the hollywood kids    hollywood is where we live
e--------------------------------|--------------------------------|
B--------------------------------|--------------------------------|
G--------------------------------|--------------------------------|
D--7/9--------7/9----------------|--7/9--------7/9----------------|
A--7/9--------7/9----------------|--7/9--------7/9----------------|
E--5/7--------5/7----------------|--5/7--------5/7----------------|


any good friend of the lollypop kids   over the rainbow with the wiz
e------------------------------------|--------------------------------|
B------------------------------------|--------------------------------|
G------------------------------------|--------------------------------|
D--7/9--------7/9--------------------|--7/9--------7/9----------------|
A--7/9--------7/9--------------------|--7/9--------7/9----------------|
E--5/7--------5/7--------------------|--5/7--------5/7----------------|

we represent the hollywood jams    organic anti-beat box band
e--------------------------------|--------------------------------|
B--------------------------------|--------------------------------|
G--------------------------------|--7/9--------7/9----------------|
D--10/12-------10/12-------------|--7/9--------7/9----------------|
A--10/12-------10/12-------------|--5/7--------5/7----------------|
E--8/10--------8/10--------------|--------------------------------|


Verse 4 [play five times]

e------------------------|----------------------------------|
B------------------------|----------------------------------|
G--9~~-------------------|-9~~------------------------------|
D--9~~--------5-----5~~--|-9~~-----------x-5--x--7----------|
A--7~~--------5-----5~~--|-7~~-----------x-5--x--7----------|
E--0~~------------0------|-0~~-----------x-3--x--5----------|


e------------------------|----------------------------------|
B------------------------|----------------------------------|
G--9~~-------------------|-9~~------------------------------|
D--9~~--------5-----5~~--|-9~~-----------------8--7--5------|
A--7~~--------5-----5~~--|-7~~-----------------8--7--5------|
E--0~~------------0------|-0~~-----------------6--5--3------|


Outro

e-----------|-----------|-----------|-----------|-----------|-----------|
B-----------|-----------|-----------|-----------|-----------|-----------|
G-----------|-----------|-----------|-----------|-----------|-----------|
D--2~~------|-----------|-----------|-----------|-----------|-----------|
A--2~~------|-----------|-----------|-----------|-----------|-----------|
E--0~~------|-----------|-----------|-----------|-----------|-----------|
Sustain Chord ~~~~~~~~~~~~~~~~~~~~~~~~~~~~~~~~~~~~~~~~~~~~~~~~~~~~~~~~~

e---------------|------------|----------------|
B---------------|------------|----------------|
G---------------|------------|----------------|
D-----x5-x7---2-|----8-7-5-2-|-----xxxxxxxxx--|
A-----x5-x7---2-|----8-7-5-2-|-----xxxxxxxxx--|
E-----x3-x5---0-|----6-5-3-0-|-----xxxxxxxxx--|

END
Tap to rate this tab
# A B C D E F G H I J K L M N O P Q R S T U V W X Y Z