Song name
# A B C D E F G H I J K L M N O P Q R S T U V W X Y Z

Red Hot Chili Peppers - Otherside tab

Help us improve GuitareTab! Take a short survey!
intro:

E ---------------------------------------
B ---------------------------------------
G ---------------------------------------
D -----------------7-7--9-7--------------
A -----------7-7-7----------10-7--5-5-5--
E ---------------------------------------


E ---------------------------------------
B ---------------------------------------
G ---------------------------------------
D -------------7-7--9-7------------------
A -------7-7-7----------10-7(7-7-7)-5-5-5
E ---------------------------------------


E ---------------------------------------
B ---------------------------------------
G ---------------------------------------
D -------------7-7--9-7------------------
A -------7-7-7----------10-7(7-7-7)-5-5-5
E ---------------------------------------

E ---------------------------------------
B ---------------------------------------
G -------------------9-9-9---------------
D -------------7-7-7-------9-9-9---------
A -------7-7-7---------------------------
E ---------------------------------------


verse:
e -----------------15-- 
B ---13~~~~----12------ played with lots of 
G --------------------- variation.   
D --------------------- sometimes a G or Am chord is thrown in 
A --------------------- 
E ---------------------


chorus: 
e ------------------------------------------- 
B ------------------------------------------- 
G ------------------------------------------- 
D --------7-7--9-7---------------------------
A --7-7-7--------------10-7~-7-7-7-10--10-12- 
E ------------------------------------------- 

e ---------------------------------------- 
B ---------------------------------------- 
G ---------------------------------------- 
D ------------7-7--9-7-------------------- 
A --7-7-7--------------10-7~-7-7-7-5--5-5- 
E ---------------------------------------- 

e ------------------------------------------ 
B ------------------------------------------ 
G ------------------------------------------ 
D --2--2--2--5-7--7--7/14--14--14----------- 
A --------------------------------14--14-14- 
E ------------------------------------------ 

e]---------------------------12--12-12~~~--------------- 
B]-------------12--12-12~~~----------------12--12-12~~~- 
G]--9--9-9~~~------------------------------------------- 
D]------------------------------------------------------ 
A]------------------------------------------------------ 
E]------------------------------------------------------ 

solo:

e]----------------12--12-12~12-14p12-12-14p12-14p12-12-14p12-and so on-- 
B]--10--10-10~~~-------------------------------------------------------- 
G]---------------------------------------------------------------------- 
D]---------------------------------------------------------------------- 
A]---------------------------------------------------------------------- 
E]----------------------------------------------------------------------
Related for Otherside tab