Song name
# A B C D E F G H I J K L M N O P Q R S T U V W X Y Z

Red Hot Chili Peppers - Aeroplane tab

Aeroplane

By The Red Hot Chili Peppers

Tabbed by: Andy B

This is my first attempt at guitar tablature, it is very detailed and I hope that it is easy to follow, if you are playing along to the CD you should be able to figure out the length of the notes yourself if you do not use the CD the this might be hard to 
Follow,I honestly don't know. anyhoo I wish you good luck in playing this
great song.

Intro 
Moderately: Crotchet = 96

  Let ring-------	

E 3---------|3---------|5------6------------|-----| 
B 6---------|3---------|3------------3------|5----|
G 3---------|3---------|3----------------3--|5----|
D 3---------|5---------|3-------------------|5----|
A 3---------|3---------|3-------------------|3----|
E ----------|----------|--------------------|-----|
     1 + 2 + 3 + 4 +

E 6-----5---------3|3-----------|---------|-------|
B 3---------6------|3-----------|3--------|5------|
G 3------------3---|5----------5|3--------|5------|
D 3----------------|5-----------|3--------|5------|
A 3----------------|3-----------|3--------|3------|
E 3----------------|------------|---------|-------|

Chorus

E 6-6-6-6-6-6-6-6-6-6-6-6-6-6-6-6|6-6-6-6-6-6-6-6-6-6-6-6-6-6-6-6|
B 6-6-6-6-6-6-6-6-6-6-6-6-6-6-6-6|5-5-5-5-5-5-5-5-5-5-5-5-5-5-5-5|
G 5-5-5-5-5-5-5-5-5-5-5-5-5-5-5-5|5-5-5-5-5-5-5-5-5-5-5-5-5-5-5-5| X4.5
D -------------------------------|-------------------------------|
A -------------------------------|-------------------------------|
E -------------------------------|-------------------------------|

  I Like plea-sure spiked with pain and   mu-sic is my aer-o-plane 

Optional Guitar 2 : Started in the last quaver beat of 3RD time playing the above Chorus

E ----------------|--------------------------------|
B ----------------|--------------------------------|
G -------------X-X|3-3-3-3-3-3-3-3-3-3-----3-3-3---|
D ----------------|--------------------3-5-------5-|
A ----------------|--------------------------------|
E ----------------|--------------------------------|

       Plea-sure Spiked 
	    (w/ wah wah)
E ---------------------------|--------------------------|
B ---------------------------|--------------------------|
G 3-3-3-3-3-X-X—3------------|-3-3-3-3-X-X-3—3----------|
D -----------------3-5---X-X-|------------------3-5—X-X-|
A ---------------------------|--------------------------|
E ---------------------------|--------------------------|

E -------------------X--------|
B ---------------6----6—X-6-6-|
G –3-3-3-3-3-5/7--------------|
D ----------------------------|
A ----------------------------|
E ----------------------------|

				 1. A	

VERSE

E –18--------X--18------|-18--------X--18------|
B –18--------X--18------|-17--------X--17------|
G ----------------------|----------------------|  X8
D ----------------------|----------------------|
A ----------------------|----------------------|
E ----------------------|----------------------|


1. A looking in my own eyes hello,
   I can find the love I want,
   Someone better slap me, 
   before I start to rust,
   Before I start to decompose.
   Looking in my rear view mirror 	
   Looking in my rear view mirror
   I can make it disappear,
   I can make it disappear
   Have no fear. 

Chorus 

E 6-6-6-6-6-6-6-6-6-6-6-6-6-6-6-6|6-6-6-6-6-6-6-6-6-6-6-6-6-6-6-6|
B 6-6-6-6-6-6-6-6-6-6-6-6-6-6-6-6|5-5-5-5-5-5-5-5-5-5-5-5-5-5-5-5|
G 5-5-5-5-5-5-5-5-5-5-5-5-5-5-5-5|5-5-5-5-5-5-5-5-5-5-5-5-5-5-5-5| X6
D -------------------------------|-------------------------------|
A -------------------------------|-------------------------------|
E -------------------------------|-------------------------------|



Optional Guitar 2: Started at the 2ND bar given of the chorus 3RD
Time Round.

E ----------------------------|---------------------------|
B ----------------------------|---------------------------|
G –3/5-5/7-7--7/10--10---10/7-|-9/12--12-(12)\9-----9/10\7|
D ----------------------------|---------------------------|
A ----------------------------|---------------------------|
E ----------------------------|---------------------------|


  With pain                     that motherfucker’s always


E ----------------------------------|--------------------------|
B ----------------------------------|--------------------------|
G –7-10-9----7\5----5/7---\--3-3-3-3|3-5-3--5-3-5---3-5-5-3----|
D ----------------------------------|-----------------------5-3|
A ----------------------------------|--------------------------|
E ----------------------------------|--------------------------|

Verse

E --------------------------|
B --------------------------|
G --------------------------|
D --------------------------| X 3
A –5-------------------(5)\-|
E --------------------------|

E -------------------------|
B -------------------------|
G –3---5---3--5--3----3---5|5 ( Hold for 2 beats) ( Bar and 1/2
D -------------------------|					Rest)
A -------------------------|
E -------------------------|

E -------------------|-----------------------|-------------------------|
B ------------3------|--------3--------------|--------------------3----|
G –---5---5----------|------------5/3---X---3|---------3-----5---------|
D -------------------|-----------------------|-----3-5-----------------|
A -------------------|-----------------------|-------------------------|
E -------------------|-----------------------|-------------------------|

E -------------------|-----------------------|----------------|
B -------------------|-----------------------|----------------|
G –5-3—5------------3|----7---5-7---5-7---7-5|-----3----5----3|
D ---------5----3-5--|-----------------------|----------------|
A -------------------|-----------------------|----------------|
E -------------------|-----------------------|----------------|

E -------------------|--------------------|
B -------------------|--------------------|
G -------------------|------------3-------|
D -------------------|3---X-3-------5-3-5-| 1 BAR REST
A ------------------5|---------5----------|
E -------------------|--------------------|


E -------------------|
B -------------------|
G –5---3---3---------|
D --------------5-4-3|
A -------------------|
E -------------------|

2. Sitting in my kitchen 
   Hey, Girl
   I’m Turning into dust again
   My melancholy baby
   The star of Mazzy must
   Push her force inside of me
   I’m overcoming gravity
  I’m overcoming gravity
  It’s easy when you’re sad to be
  It’s easy when you’re sad
  Saddle up me.


Chorus 

E 6-6-6-6-6-6-6-6-6-6-6-6-6-6-6-6|6-6-6-6-6-6-6-6-6-6-6-6-6-6-6-6|
B 6-6-6-6-6-6-6-6-6-6-6-6-6-6-6-6|5-5-5-5-5-5-5-5-5-5-5-5-5-5-5-5|
G 5-5-5-5-5-5-5-5-5-5-5-5-5-5-5-5|5-5-5-5-5-5-5-5-5-5-5-5-5-5-5-5| X3.5
D -------------------------------|-------------------------------|
A -------------------------------|-------------------------------|
E -------------------------------|-------------------------------|

					    Bridge

E 6-6-6-6-6-6-6-6-6-6-6-6-6-6-6-6|-------------------------------|
B 6-6-6-6-6-6-6-6-6-6-6-6-6-6-6-6|6-6-6-6-6-6-6-6-6-3-3-3-3-3-3-3|
G 5-5-5-5-5-5-5-5-5-5-5-5-5-5-5-5|3-3-3-3-3-3-3-3-3-3-5-5-5-5-5-5| 
D -------------------------------|3-3-3-3-3-3-3-3-3-3-3-3-3-3-3-3|
A -------------------------------|-------------------------------|
E -------------------------------|-------------------------------|

E -------------------------------|-------------------------------|
B 3-3-3-3-3-3-3-3-3-3-3-3-3-3-3-3|6-6-6-6-6-6-6-6-6-3-3-3-3-3-3-3|
G 5-3-3-3-3-3-3-3-3-3-3-3-3-3-3-3|3-3-3-3-3-3-3-3-3-3-5-5-5-5-5-5| 
D 3-3-3-3-3-3-3-3-5-5-5-5-5-5-5-5|3-3-3-3-3-3-3-3-3-3-3-3-3-3-3-3|
A -------------------------------|-------------------------------|
E -------------------------------|-------------------------------|

E -------------------------------|-----------|3---------|
B 3-3-3-3-3-3-3-3-3-3-3-3-3-3-3-3|6---------3|3---------|
G 5-3-3-3-3-3-3-3-3-3-3-3-3-3-3-3|3---------5|3---------|  X3.5
D 3-3-3-3-3-3-3-3-5-5-5-5-5-5-5-5|3---------3|5---------|
A -------------------------------|-----------|----------|
E -------------------------------|-----------|----------|

Just one note could make me float
Could make me float away
One note from the song she wrote 
Could fuck me where I lay
Just one note could make me choke
One Note that’s not a lie
Just one note could cut my throat 
one note could make me die.

Chorus


E 6-6-6-6-6-6-6-6-6-6-6-6-6-6-6-6|6-6-6-6-6-6-6-6-6-6-6-6-6-6-6-6|
B 6-6-6-6-6-6-6-6-6-6-6-6-6-6-6-6|5-5-5-5-5-5-5-5-5-5-5-5-5-5-5-5|
G 5-5-5-5-5-5-5-5-5-5-5-5-5-5-5-5|5-5-5-5-5-5-5-5-5-5-5-5-5-5-5-5| X4
D -------------------------------|-------------------------------|
A -------------------------------|-------------------------------|
E -------------------------------|-------------------------------|

I like Pleasure Spiked With pain . . . . Etc.

E 6------|
B 6------|
G -------|
D -------|
A -------|
E -------|

Bass Solo

Outro Guitar Solo

E ------------------|-17----17--15------------|------------------------|
B –18--------18--15-|---------------18--------|------------------------|
G ------------------|--------------------17-17|-15---------------------|
D ------------------|-------------------------|------17-15-17----------|
A ------------------|-------------------------|----------------15-15-15|
E ------------------|-------------------------|------------------------|

E -------------------|------------------------------|-----------------|
B -------------------|------------------------------|-----------------|
G -------------------|------------------------------|-----------------|
D -------------------|------------------------------|-----------------|
A –15---(15)----15-15|15--15--15--15--15--15---15-13|-15---(16)-15-15-|
E -------------------|------------------------------|-----------------|

E -------------------------------|--------------------------------|
B -------------------------------|--------------------------------|
G -------------------------------|--------------------------------|
D -------------------------------|--------------------------------|
A ---------15-13-------15-13---13|------------13------13-15-13----|
E –15---13-------13-15-----------|-15---13-15------15-----------15|

E ------------------------|----------------|-----------------|
B ------------------------|----------------|-(5)------------6|
G ------------------------|-------3----3-5-|------3-5-3—5/7--|
D ---------------------3-5|--3-5----5------|-----------------|
A ----------3---1-1-3-----|----------------|-----------------|
E –1---3------------------|----------------|-----------------|

E -------------------6|-------------------6|
B -8--------(8)-6-8---|-8-------(8)-6-8----|
G --------------------|--------------------|
D --------------------|--------------------|
A --------------------|--------------------|
E --------------------|--------------------|

E -8---8--(8)—6-8-8-(8)-6-8-8-(8)-8-6|
B -----------------------------------|
G -----------------------------------|
D -----------------------------------|
A -----------------------------------|
E -----------------------------------|

E -8-6---6---------------------------------------|
B -----8---8-6-8-6---6---------------------------|
G -----------------7---7\5-3-5-3---3-3---3-5-----|
D -------------------------------5-----5-----5-3-|
A -----------------------------------------------|
E -----------------------------------------------|

E -------------3-X----------|----------------------|---------------|
B ---------5-3-3-X-5--------|-5---5-----5----------|---------------|
G -----3---5-3-----5-X-X-X-X|-5---5-----5-5---5--3-|-4-------------|
D -5-5----------------------|----------------------|-------5-3-5-3-|
A --------------------------|----------------------|---------------|
E --------------------------|----------------------|---------------|

E ------------------|
B ------------------|
G ---------------10-|
D ----------------9-|
A ---------------10-|
E ------------------|
Tap to rate this tab
# A B C D E F G H I J K L M N O P Q R S T U V W X Y Z