Guitaretab - guitar tabs
Song name
# A B C D E F G H I J K L M N O P Q R S T U V W X Y Z

Red Hot Chili Peppers - Universally Speaking tab

Title: Universally Speaking
Artist: Red Hot Chili Peppers
Album: 

Instrument: 6 String Guitar

Tabbed by: Gary ()

Tuning: Standard (E A D G B E)

Verse & Chorus

   D                                       Em7
E|--------------------------------------|--0---0---0---0--0----0--0---0----||
B|-7---7---7---7--7----7--7---7---7--x--|--8---8---8---8--8----8--8---8----||
G|-7---7---7---7--7----7--7---7---7--x--|--7---7---7---7--7----7--7---7----||
D|-7---7---7---7--7----7--7---7---7--x--|--0---0---0---0--0----0--0---0----||
A|-5---5---5---5--5----5--5---5---5--x--|--7---7---7---7--7----7--7---7----||
E|--------------------------------------|--x---x---x---x--x----x--x---x----||



               Bridge (Dont know exact rythym but here are the chords)
            A       Amaj7      G      Bm
E|-0--x--||-5---------x--------3-------2--||
B|-8--x--||-5---------5--------3-------3--||
G|-7--x--||-6---------6--------4-------4--|| Play they chords over once then
D|-0--x--||-7---------6--------5-------4--|| repeat but 2nd time you do:
A|-7--x--||-7---------x--------5-------2--||
E|-x--x--||-5---------5--------3-------x--||


    A     Amaj7     G     Bm     F#m7b5    B+7    Em
E|--5-------x-------3------2-------0--------3------7--||
B|--5-------5-------3------3-------1--------4------8--||Then go back to the
G|--6-------6-------4------4-------2--------2------9--||chords for the verse
D|--7-------6-------5------4-------2--------4------9--||and chorus until you
A|--7-------x-------5------2-------x--------x------7--||get to the solo which
E|--5-------5-------3------x-------2--------x------x--||is as follows:

[ Tab from: http://www.guitaretab.com/r/red-hot-chili-peppers/25454.html ]
(Chords)
   A(open)                G
E|----------------------------------------------------------------------||
B|----------------------------------------------------------------------||
G|----------------------------------------------------------------------||
D|-16-14-12-14----12-11---12-11-12---14---12-11-12---14-(14)\-----------||
A|----------------------------------------------------------------------||
E|----------------------------------------------------------------------||


   D             A                    G
E|----------------------------------------------------------------------||
B|----------------------------------------------------------------------||
G|----------------------------------------------------------------------||
D|-\7---7--7-7---16-14-12-14--12-11--12-11-12--14--12-11-12--14-(14)/---||
A|----------------------------------------------------------------------||
E|----------------------------------------------------------------------||


   D                 A                   G
E|------------------------------------------------------------------------||
B|------------------------------------------------------------------------||
G|------------------------------------------------------------------------||
D|-/19--19--19--19---16-14-12-14--12-11--12-11-12--14--12-11-12--11-(11)\-||
A|------------------------------------------------------------------------||
E|------------------------------------------------------------------------||


    D            A(open)          G                    D
E|------------------------------------------------------------------||
B|------------------------------------------------------------------||
G|------------------------------------------------------------------||
D|-\7---7--7-7---7-5-4-5br----0---0-----------7------7/12-----------||
A|------------------------------------------------------------------||
E|------------------------------------------------------------------||
Related for Universally Speaking tab
Advertisement will be closed in 10 seconds