Song name
# A B C D E F G H I J K L M N O P Q R S T U V W X Y Z

Red Hot Chili Peppers - The Zephyr Song tab

#----------------------------------PLEASE NOTE--------------------------------#
#This file is the author's own work and represents their interpretation of the#
#song. You may only use this file for private study, scholarship, or research.#
#-----------------------------------------------------------------------------#
#-- File created with Instab - http://www.pconline.com/~smcarey/instab.html --#
#-----------------------------------------------------------------------------#

Author/Artist: Red Hot Chili Peppers
Title: The Zepher song
Album: By the way
Transcribed by: Goncho87
Email: Napo14@hotmail.com


Intro:

-||-------------------------------|-----------------------------0-|
-||-----8-------6-------0-------5-|-----5-------3-------0-------5-|
-||---5-------4-------0-------5-5-|---5-------4-------0-------5---|
-||-7-------5-------2-------7-----|-7-------5-------2-------7-----|
-||-------------------------------|-------------------------------|
-||-------------------------------|-------------------------------|



Verse 1:                                                                              

-|-----------------------------------------------------------|
-|-----5---8-6-5-----3---6-5-3-----0---3-1-0-----1-1/5-3-----|
-|---5---5---------4---4---------0---0---------2---------5-4-|
-|-7-------------5-------------2-------------3---------------|
-|-----------------------------------------------------------|
-|-----------------------------------------------------------|
                                                                              

-|---------5-----------3-3-3-----------0---------------||
-|-----5-8---5-----3---6-5-3-----0---3---1-----1-----1-||
-|---5-----------4---4---------0---0---------2-----2---||
-|-7-----------5-------------2-------------3-----3-----||
-|-----------------------------------------------------||
-|-----------------------------------------------------||



Verse 2:

-|-----------------------------------------------------------|
-|-----5---8-6-5-----3---6-5-3-----0---3-1-0-----1-1/5-3-----|
-|---5---5---------4---4---------0---0---------2---------5v--|
-|-7-------------5-------------2-------------3---------------|
-|-----------------------------------------------------------|
-|-----------------------------------------------------------|


-|---------5-----------3-3-3-----------0---------------||
-|-----5-8---5-----3---6-5-3-----0---3---1-----1-----1-||
-|---5-----------4---4---------0---0---------2-----2---||
-|-7-----------5-------------2-------------3-----3-----||
-|-----------------------------------------------------||
-|-----------------------------------------------------||



Chorus 1:

D
 Fly away on my zepher
G	  A 
 I feel it more than ever
D
 And in this perfect weather
G	       A 		
 will find a place together



Verse 3:

-|-----------------------------------------------------------|
-|-----5---8-6-5-----3---6-5-3-----0---3-1-0-----1-1/5-3-----|
-|---5---5---------4---4---------0---0---------2---------5v--|
-|-7-------------5-------------2-------------3---------------|
-|-----------------------------------------------------------|
-|-----------------------------------------------------------|


-|-----------------------------------------------------------------|
-|-----5---8-6-5-----3---6-5-3-5-----0---3-1-0-1-----1-1/5-3---3-5-|
-|---5---5---------4---4-----------0---0-----------2---------5-----|
-|-7-------------5---------------2---------------3-----------------|
-|-----------------------------------------------------------------|
-|-----------------------------------------------------------------|


-|---------5-----------3-3-3-----------0---------------||
-|-----5-8---5-----3---6-5-3-----0---3---1-----1-----1-||
-|---5-----------4---4---------0---0---------2-----2---||
-|-7-----------5-------------2-------------3-----3-----||
-|-----------------------------------------------------||
-|-----------------------------------------------------||



Chorus 2:

D
 Fly away on my zepher
G           A 
 I feel it more than ever
D
 And in this perfect weather
G	       F#m 		
 will find a place together

D
 In the wallow ever sense of my emotions
G		   A 	      G A
 All the world can pass me by     

D
 Fly away on my zepher
G	       A 		
 will find a place together      



Solo:                                                                  

-||-12-10-12-12---12-10-12---------10-8-10-10---10-10-12------------12-10-12--
-||------------------------12br-10-----------------------12br-10--------------
-||---------------------------------------------------------------------------
-||---------------------------------------------------------------------------
-||---------------------------------------------------------------------------
-||---------------------------------------------------------------------------
                                                                              

-12-----10-12---------10-8-10-10---10-8-10-------------||
--------------12br-10------------------------12br-10---||
-----------------------------------------------------9-||
-------------------------------------------------------||
-------------------------------------------------------||
-------------------------------------------------------||



Bridge:

Am G Em F
Am G Em F



Chorus 3:

D
 Fly away on my zepher
G           A 
 I feel it more than ever
D
 And in this perfect weather
G	       A 		
 will find a place together

D
 In the wallow ever sense of my emotions
G		   A 	      G A
 All the world can pass me by     

D
 Fly away on my zepher
G	       A 		
 we are gone live forever...

forever...



Outrough:                                                                              
								
-||-14----14-14----14-14----14---15-15---15-15----17-17-17-17-17-|    |---17---|	
-||--------------------------------------------------------------|    |---19---|
-||--------------------------------------------------------------|X4  |--------|  
-||--------------------------------------------------------------|    |--------|
-||--------------------------------------------------------------|    |--------|
-||--------------------------------------------------------------|    |--------|

I got the words awfully wrong but it doesn't matter. Grettins from Argentina.
                                                                              
Tap to rate this tab
# A B C D E F G H I J K L M N O P Q R S T U V W X Y Z