Guitaretab - guitar tabs
Song name
# A B C D E F G H I J K L M N O P Q R S T U V W X Y Z

Red Hot Chili Peppers - Look Around tab

-------------------------------------------------------------------------------
			     Look Around  - Red Hot Chili Peppers

Tabbed from RHCP website on 8/25/11 before the release of I'm With You...its the opening 
song in the video at this link:

http://www.youtube.com/user/RHCPtv#p/u/1/zb5zOU9mvno

-------------------------------------------------------------------------------
Tabbed by:Chris Warner
Email:cwarner3000@gmail.com

Tuning:standard

He improvises alot with Gm Eb F Gm chords. Will tab the rest once the actual album is released!
[ Tab from: http://www.guitaretab.com/r/red-hot-chili-peppers/290086.html ]
    Gm                          Eb      F          Gm
e|-10-10------------------------------------------------------------------------------|
B|-11-11--10-10--11--11-11-11---8-8--10-10-11--12--10-h-12----------------------------|
G|-12-12--10-10--12--12-12-12---8-8--10-10-12--12--10-h-12----------------------------|
D|------------------------------------------------------------------------------------|
A|------------------------------------------------------------------------------------|
E|------------------------------------------------------------------------------------|

     Gm                    Eb     F
e|-13-13--13-13-13-13----------------/slide-15-15-15-15--13-15-----------------------|
B|-11-11--11-11-11-11---10-8-8--10---/slide-15-15-15-15--13-15-----------------------|
G|-12-12--12------------10-8-8--10---------------------------------------------------|
D|-----------------------------------------------------------------------------------|
A|-----------------------------------------------------------------------------------|
E|-----------------------------------------------------------------------------------|


************************************

| /   slide up
| \   slide down
| h   hammer-on
| p   pull-off
| ~   vibrato
| +   harmonic
| x   Mute note
| b   Bend
| pb  Pre-bend
| br  Bend release
| pbr Pre-bend release
| brb Bend release bend

************************************
Related for Look Around tab
Look Around chords by Red Hot Chili Peppers