Song name
# A B C D E F G H I J K L M N O P Q R S T U V W X Y Z

Red Hot Chili Peppers - Did I Let You Know tab

Red Hot Chili Peppers - Did I Let You Know


I'll put a better version with the solo and everything.
for the chorus you can use this or try using high positions of the chords
 and try to figure out the strumming.
for flee's trumpet solo and for the outro just play F ang G notes.. good luck 


Verse
------

    Cm                                 Bb     Bsus4  Bb      Badd9

e|--8----6-8-10-8-6-13\10--10--(10)-|------------------------8-8-----|
B|--8-------------------------------|--6-6-6--6-6-6--6-6-6---6-6-----|
G|--8-------------------------------|--7-7-7--8-8-8--7-7-7---7-7-----|
D|--10------------------------------|--8-8-8--8-8-8--8-8-8---8-8-----|
A|--10------------------------------|--------------------------------|
E|--8-------------------------------|--6------6------6-------6-------|
 
   Cm                                 Bb     Bsus4  Bb      Badd9

e|--8----6-8-10-8-6-13\10-13\10--10-|------------------------8-8-----|
B|--8-------------------------------|--6-6-6--6-6-6--6-6-6---6-6-----|
G|--8-------------------------------|--7-7-7--8-8-8--7-7-7---7-7-----|
D|--10------------------------------|--8-8-8--8-8-8--8-8-8---8-8-----|
A|--10------------------------------|--------------------------------|
E|--8-------------------------------|--6------6------6-------6-------|

Chorus

|F | Gm | F | Gm|
|Bb| Cm| Gm| Gm|

   F          Gm         F          Gm
e|-8--8--8----10-10-10---8--8--8----10-10-10-------|
B|-10-10-10---11-11-11---10-10-10---11-11-11-------|
G|-10-10-10---12-12-12---10-10-10---12-12-12-------|
D|-10-10-10---12-12-12---10-10-10---12-12-12-------|
A|-8--8--8----10-10-10---8--8--8----10-10-10-------|
E|-------------------------------------------------|

   Bb      Cm      Gm      Gm
e|-6-6-6---3-3-3---3-3-3---3-3-3-------------------|
B|-6-6-6---4-4-4---3-3-3---3-3-3-------------------|
G|-7-7-7---5-5-5---3-3-3---3-3-3-------------------|
D|-8-8-8---5-5-5---5-5-5---5-5-5-------------------|
A|-8-8-8---3-3-3---5-5-5---5-5-5-------------------|
E|-6-6-6-----------3-3-3---3-3-3-------------------|
Tap to rate this tab
# A B C D E F G H I J K L M N O P Q R S T U V W X Y Z