Song name
# A B C D E F G H I J K L M N O P Q R S T U V W X Y Z

Red Hot Chili Peppers - Shallow Be Thy Game tab

Shallow Be Thy Game (solo only)
if enough people rate it I'll do whole song because the other tab isn't great...

using distortion and octaver (1 octave down)

     |--------------------------19----------19-------------|
     |-17------17------17-------17----------17-------------|
     |-----------------------------------------------------|
     |-----------------------------------------------------|
     |-----------------------------------------------------|
     |-----------------------------------------------------|

     --------------------------------------------19------|
     ---------17------17---17----------17-17-------------|
     ----------------------------------------------------|
     ----------------------------------------------------|
     --------------use tons of vibrato here--------------|
     ----------------------------------------------------|


------------------------------|
---14b15----14b15 ---------|--|
------------------------------|
------------------------------|
------------------------------|
------------------------------|

|---------------------------very quick ----|------------------22----------|
|--14b15-------------------slide----------|--------22b24------------------|
|----------------12-----------------------|----------------------------|--|
|-----------------------------14/21--------|------------------------------|
|------------------------------------------|------------------------------|
|----------------------------------------- |------------------------------|

---------------17------------------------------|
|~-~r22----20--------20b22-- r 20--------------|
-----------------------------------------------|
-----------------------------------------------|
-----------------------------------------------|
-----------------------------------------------|



17--14-------14----------------------------------------------------------|
--------15------15---14--------------------------------------------------|
---------------------------16---14---------------------------------------|
--------------------------------------17---16---14 / 12---12h14---12p11--|
-------------------------------------------------------------------------|
-------------------------------------------------------------------------|

------------------------------------------------------------------------------|
------------------------------------------------------------------------------|
------------------------------------------------------------------------------|
-12p11------------------------------------------------------------------------|
------------12---14---10------10------10-------10-------10--------------------|
------------------------------------------------------------------------------|

that's it only 8 measures but definitely cool.
would love it if someone could find a good if you want me to stay (freaky styley) tab
Tap to rate this tab
 
# A B C D E F G H I J K L M N O P Q R S T U V W X Y Z