Song name
# A B C D E F G H I J K L M N O P Q R S T U V W X Y Z

Red Hot Chili Peppers - Nothing To Lose tab

RHCP Nothing To Lose

A great song,I didn't find any tabs for the song so i decided to tab it out for you :)

Intro:

     C#m             Emaj Amaj       Bmaj  C#m             Amaj     Bmaj
e|---9---9---9-----7----5--5-5----7-----9---9---9-----5--5-5---7-7-7-7-7-|
B|---9---9---9-----9----5--5-5----7-----9---9---9-----5--5-5---7-7-7-7-7-|
G|---9---9---9-----9----6--6-6----8-----9---9---9-----6--6-6---8-8-8-8-8-|x3
D|---11--11--11----9----7--7-7----9-----11--11--11----7--7-7---9-9-9-9-9-|
A|---11--11--11--7-7----7--7-7----9-----11--11--11----7--7-7---9-9-9-9-9-|
E|-9-9---9---9--------5-5--5-5--7-7---9-9---9---9---5-5--5-5---7-7-7-7-7-|

Verse:

do this fill:

|-x-9-9p7-|
|---------|
|---------|
|---------|
|---------|
|---------|

then C#m Emaj Amaj Bmaj C#maj Amaj Bmaj

and then another fill:

|--9-7---9-7---9-7---9-7---9-7---9-------9-7---9-7---9-7---9-7---9-7-----|
|------9-----9-----9-----9-----9-------9-----9-----9-----9-----9-----9---|
|------------------------------------------------------------------------|x2
|------------------------------------------------------------------------|
|------------------------------------------------------------------------|
|------------------------------------------------------------------------|

the second time around do the second part like this:

|----9-7---9-7---9-7-----|
|--9-----9-----9-----9-9-|
|------------------------|
|------------------------|
|------------------------|
|------------------------|

The rest is coming soon,hope you like it ;)
Tap to rate this tab
# A B C D E F G H I J K L M N O P Q R S T U V W X Y Z