Song name
# A B C D E F G H I J K L M N O P Q R S T U V W X Y Z

Red Hot Chili Peppers - Midnight tab

By: Cacá 

Tuning: A
                
Intro:  C  G  D  A

Verso:

       F#m         Dmaj7 D Dmaj7 D
E|---2--2--2--2--|-2---2---2---2-------------|
B|---2--2--2--2--|-2---3---2---3----3p2------|
G|---2--2--2--2--|-2---2---2---2--------4p2--|  (3x)
D|---4--4--4--4--|-0---0---0---0-------------|
A|---4--4--4--4--|---------------------------|
E|---2--2--2--2--|---------------------------|


     Fadd9         Dmaj7 D Dmaj7 D
E|---2--2--2--2--|-2---2---2---2-------------|
B|---2--2--2--2--|-2---3---2---3--------5----|
G|---2--2--2--2--|-2---2---2---2----4/6------|
D|---6--4--6--6--|-0---0---0---0-------------|
A|---4--4--4--4--|---------------------------|
E|---2--2--2--2--|---------------------------|


        Bm7   Bm7 Dmaj7 D Dmaj7 D Dmaj7
E|-|---7--7--7---7---|-2--2--2--2--2--|
B|-|---7--7--10--10--|-2--3--2--3--2--|
G|-|---7--7--7---7---|-2--2--2--2--2--| (2x)
D|-|---7--7--7---7---|-0--0--0--0--0--|
A|-|---9--9--9---9---|----------------|
E|-|---7--7--7---7---|----------------|


        Fadd9       Dmaj7 D Dmaj7 D
E|-|---4--4--4--4--|-2--2--2--2-------------|
B|-|---4--4--4--4--|-2--3--2--3----3p2------|
G|-|---4--4--4--4--|-2--2--2--2--------4p2--|
D|-|---6--6--6--6--|-0--0--0--0-------------|
A|-|---4--4--4--4--|------------------------|
E|-|---2--2--2--2--|------------------------|


        Fadd9       Dmaj7 D Dmaj7 D
E|-|---4--4--4--4--|-2--2--2--2-------------|
B|-|---4--4--4--4--|-2--3--2--3-------------|
G|-|---4--4--4--4--|-2--2--2--2--------2----|  then,
D|-|---6--6--6--6--|-0--0--0--0----2/4------|
A|-|---4--4--4--4--|------------------------|
E|-|---2--2--2--2--|------------------------|


        Bm7   Bm7 Dmaj7 D Dmaj7 D Dmaj7
E|-|---7--7--7---7---|-2--2--2--2--2--|
B|-|---7--7--10--10--|-2--3--2--3--2--|
G|-|---7--7--7---7---|-2--2--2--2--2--| (2x)
D|-|---7--7--7---7---|-0--0--0--0--0--|
A|-|---9--9--9---9---|----------------|
E|-|---7--7--7---7---|----------------|


Ponte:  A  E  F  C
        A  E  F  Fmaj7

Refrão: C  G  D  A
Tap to rate this tab
 
# A B C D E F G H I J K L M N O P Q R S T U V W X Y Z