Song name
# A B C D E F G H I J K L M N O P Q R S T U V W X Y Z

Red Hot Chili Peppers - Brothers Cup tab

              THE BROTHERS CUP - Red Hot Chili Peppers
--------------------------------------------------------------------------------------------|
Tabbed by: RHCPguitarist4
Email: baseballdude627@comcast.net

Tuning: Standard eBGDAE

Intro/Verse

e|-----5--------------------------------------0-------------------------|
B|--7--5--------------------------------3--3--0-------------------------|
G|--7--5--------5--x-x-x-x-x---7--5-----3--3----------------------------|
D|----------------------------------------------------------------------|
A|----------5-x---------------------------------------------------------|
E|----------------------------------------------------------------------|

e|-----5----------------------------------------------------------------|
B|--7--5----------------------------------------------------------------|
G|--7--5--------5--x-x-x-x-x--5-5-x-x-5-5-------------------------------|
D|----------------------------------------------------------------------|
A|----------5-x------------------------------x\-------------------------|
E|----------------------------------------------------------------------|

Chorus

e|----------------------------------------------------------------------|
B|----------------------------------------------------------------------|
G|----------------------------------------------------------------------|
D|----------------------------------------------------------------------|
A|--5-3-1----------5-3-1-3-3-1-----5-3-1----------5-3-1-3-3-1-----------|
E|--------3--1--3---------------3---------3--1--3-----------------------|

Interlude

e|----------------------------------------------------------------------|
B|----------------------------------------------------------------------|
G|--7-7-5----7-7-5-7----7-7-5----7-7-5-7----7-7-5-x-5-7----7-7-5-7------|
D|----------------------------------------------------------------------|
A|----------------------------------------------------------------------|
E-----------------------------------------------------------------------|

e|----------------------------------------------------------------------|
B|----------------------------------------------------------------------|
G|--7-7-5----7-7-5-7----7-x-7-x-7-7-x-5-5-x-x-7-x-7-x-7-7-x-5-7-7575----|
D|----------------------------------------------------------------------|
A|----------------------------------------------------------------------|
E|----------------------------------------------------------------------|

e|----------------------------------------------------------------------|
B|----------------------------------------------------------------------|
G|--7-x-7-x-7-7-x-5-5-x-x-7-x-7-x-7-7-x-5-7-7575--12--10b---------------|
D|--------------------------------------------------------12-10-12-10-12|
A|----------------------------------------------------------------------|
E|----------------------------------------------------------------------|

e|----------------------------------------------------------------------|
B|----------------------------------------------------------------------|
G|--12-10b---------------------------12-10b-----------------------------|
D|----------12-x-10-12-x-1010101010----------12-10-12-10-12-------------|
A|----------------------------------------------------------------------|
E|----------------------------------------------------------------------|

e|----------------------------------------------------------------------|
B|----------------------------------------------------------------------|
G|--12-10b--------------------------------------------------------------|
D|----------12-x-10-12-x-1212121212-------------------------------------|
A|----------------------------------------------------------------------|
E|----------------------------------------------------------------------|

End Chord w/ Wammy Bar
e|------------------|
B|--8---------------|
G|--7---------------|
D|--6---------------|
A|--7---------------|
E|------------------|

| /  slide up
| \  slide down
| h  hammer-on
| p  pull-off
| ~  vibrato
| +  harmonic
| x  Mute note
Tap to rate this tab
# A B C D E F G H I J K L M N O P Q R S T U V W X Y Z