Song name
# A B C D E F G H I J K L M N O P Q R S T U V W X Y Z

Red Hot Chili Peppers - Stadium Arcadium tab

Intro:

|------------------------------------------------------------|
|-------------------------------------------------2----------|  Repeat x 2
|------------------2-----------2---------2------2------------|
|-------------4------------4----------2-------2--------------|
|--------4-------------4-----------0-------------------------|
|---2--------------------------------------------------------|


 A     E
-------0--|
-2-----0--|
-2-----1--|
-2-----2--|
-0-----2--|
-------0--|

Verse (Main Riff):
|------------------------------------------------------------|
|-------------------------------------------------2----------|  Repeat x 2
|------------------2-----------2---------2------2------------|
|-------------4------------4----------2-------2--------------|
|--------4-------------4-----------0-------------------------|
|---2--------------------------------------------------------|


 A     E
-------0--|
-2-----0--|
-2-----1--|
-2-----2--|
-0-----2--|
-------0--|

|--------------------------------------------------------------|
|-------------------------------------------------2----2h3-2---|
|------------------2-----------2---------2------2------------2-|
|-------------4------------4----------2-------2----------------|
|--------4-------------4-----------0---------------------------|
|---2----------------------------------------------------------|

|------------------------------------------------------------|
|-------------------------------------------------2----------|
|------------------2-----------2---------2------2------------|
|-------------4------------4----------2-------2--------------|
|--------4-------------4-----------0-------------------------|
|---2--------------------------------------------------------|

 A     E
-------0--|
-2-----0--|
-2-----1--|
-2-----2--|
-0-----2--|
-------0--|

Chorus:

     Bm
The Stadium Arcadium,
     D                     D
A mirror to the Moon,(A mirror to the moon)
          A               A
Well Im Forming and Im Warming, (to you)
    E                           E     E    E  E
A State of the art until the Clouds come Crashing
 Bm
Stranger things have happened both,
 D                D
Before and after noon, (before and afternoon)
         A              A
And Im forming and Im warming, (to you)
        E              E  E   E   E     E    E7
And Pushing myself and No I dont mind askin now

Main Riff (Verse)

Chorus:

     Bm
The Stadium Arcadium,
     D                     D
A mirror to the Moon,(A mirror to the moon)
          A               A
Well Im Forming and Im Warming, (to you)
    E                           E     E    E  E
A State of the art until the Clouds come Crashing
 Bm
Stranger things have happened both,
 D                D
Before and after noon, (before and afternoon)
         A              A
And Im forming and Im warming, (to you)
        E              E  E   E   E     E    E7
And Pushing myself and No I dont mind askin now

Main Riff (Verse):

Chorus:

     Bm
The Stadium Arcadium,
     D                     D
A mirror to the Moon,(A mirror to the moon)
          A               A
Well Im Forming and Im Warming, (to you)
    E                           E     E    E  E
A State of the art until the Clouds come Crashing
 Bm
Stranger things have happened both,
 D                D
Before and after noon, (before and afternoon)
         A              A
And Im forming and Im warming, (to you)
        E              E  E   E   E     E
And Pushing myself and No I dont mind askin..

       Bm
The Stadium Arcadium,
      D                  D
A mirror to the Moon,(A mirror to the moon)
           A                A
Well Im Forming and Im Warming,
  E                           E     E    E  E
State of the art until the Clouds come Crashing
Bm
Stranger things have happened both,               |
D                                                 |      Strum Downwards
Before and after noon, (before and afternoon)     |------Quite Fast
A                                    E            |      And Stop At Last
And Im forming and Im warming ..to you.           |      Warming, Strum
                                                         Once At Last "you"
Tap to rate this tab
# A B C D E F G H I J K L M N O P Q R S T U V W X Y Z