Song name
# A B C D E F G H I J K L M N O P Q R S T U V W X Y Z

Red Hot Chili Peppers - Hump De Bump tab

Intro 0:01
---10-----|
---10-----|
---10-----| x6
---9------|
---10-----|
----------|

Verse 0:04
--------------------------------|
--------------------------------|
--------------------------------| x12
-12p10-10-12p10-10-10h12--------|
--------------------------------|
--------------------------------|

Verse part 2 0:30                       On 8th Time 0:46
--------------------------------     ---------10------------|
--------------------------------     ---------10------------|
--11--10--11--10--10/11--------- x7  --11-----11--x8--------|
--10--9---10--9----9/10---------     --10-----10------------|
--------------------------------     -----------------------|
--------------------------------     -----------------------|

Chorus 0:47
(strumming pattern not shown)
-10---6---5---3-------------------------------|
-10---6---5---3-------------------------------|
-10---7---6---4-------------------------------| x2
-12---8---7---5-------------------------------|
-12---8---7---5--------------8-----------10---|
-10---6---5---3-----6-6-8/10---8-8-10/12------|

Verse 1:04                           On 8th time he adds this 1:20
--------------------------------     -----------------------------|
--------------------------------     -----------------------------|
-------------------------------- x12 ----------------10h12p10-----|
-12p10-10-12p10-10-10h12--------     -12-10-10-12p10--------------|
--------------------------------     -----------------------------|
--------------------------------     -----------------------------|

Verse part 2 1:30                       On 8th Time 1:46
--------------------------------     ---------10------------|
--------------------------------     ---------10------------|
--11--10--11--10--10/11--------- x7  --11-----11--x8--------|
--10--9---10--9----9/10---------     --10-----10------------|
--------------------------------     -----------------------|
--------------------------------     -----------------------|

Chorus 1:47
(strumming pattern not shown)
-10---6---5---3-------------------------------|
-10---6---5---3-------------------------------|
-10---7---6---4-------------------------------| x2
-12---8---7---5-------------------------------|
-12---8---7---5--------------8-----------10---|
-10---6---5---3-----6-6-8/10---8-8-10/12------|


2:04 - 2:38 percussion solo w/bass


Verse part 2 2:39                      On 8th time 2:55
--------------------------------     ---------10------------|
--------------------------------     ---------10------------|
--11--10--11--10--10/11--------- x7  --11-----11--x8--------|
--10--9---10--9----9/10---------     --10-----10------------|
--------------------------------     -----------------------|
--------------------------------     -----------------------|

Chorus 2:56
(strumming pattern not shown)                     Final note 3:30
-10---6---5---3-------------------------------        ------|
-10---6---5---3-------------------------------        ------|
-10---7---6---4------------------------------- x4     ------|
-12---8---7---5-------------------------------        ------|
-12---8---7---5--------------8-----------10---        --10--|
-10---6---5---3-----6-6-8/10---8-8-10/12------        ------|
Tap to rate this tab
# A B C D E F G H I J K L M N O P Q R S T U V W X Y Z