Song name
# A B C D E F G H I J K L M N O P Q R S T U V W X Y Z

Red Hot Chili Peppers - Ready Made tab

-----------------------------------------------------------------
Readymade- Red Hot Chili Peppers
-----------------------------------------------------------------
Tabbed by Olin Clark
Email: olinclark@chartermi.net

Tuning:Standard
IMHO, all the tabs on this website are confusing and hard to read. So here are all the 
in this song. I have played along with this song a lot and it sounds 100% to me. plz 
and rate :)
intro
e|---------------------------------------------------------------|
B|-------17~~~~------------------------17/-----------------------|
G|-------12~~~~--------------------------------------------------|
D|---------------------------------------------------------------|
A|---------------------------------------------------------------|
E|-------------------------------------17/-----------------------|

Part 1
e|-----------------------------------------------------------------|
B|-----------------------------------------------------------------|
G|-----------------------------------------------------------------|
D|---------5---------------5---------------5---------------------5-|
A|-5-7-7-5---7-5-7-5-7-7-5---7-5-7-5-7-7-5---7-5-7---------5-6-7---|
E|-------------------------------------------------4-5-6-7---------|

Part 2 (pre-chorus)
e|-----------------------------------------------------------------|
B|-----------------------------------------------------------------|
G|-----------------------------------------------------------------|
D|---------5---------------5---------------5-----------------------|
A|-5-7-7-5---7-5-7-5-7-7-5---7-5-7-5-7-7-5---7-5-7---------5-6-7---|
E|-------------------------------------------------4-5-6-7---------|

Harmonizing part
e|-----------------------------------------------------------------|
B|-----------------------------------------------------------------|
G|---------4---------------4---------------4---------------------4-|
D|-4-6-6-4---6-4-6-4-6-6-4---6-4-6-4-6-6-4---6-4-6---------4-5-6---|
A|-------------------------------------------------3-4-5-6---------|
E|-----------------------------------------------------------------|

Part 3
e|---------------------------------------------------------------|
B|---------------------------------------------------------------|
G|-------------12h14p12----------------12h14p12------------------|
D|-12-14-14-12----------12-14-12-14-14-----------12-14-----------|
A|---------------------------------------------------------------|
E|---------------------------------------------------------------|

e|---------------------------------------------------------------|
B|---------------------------------------------------------------|
G|-------------12h14p12----------------------------12------------|
D|-12-14-14-12----------12-14-------------12-13-14---------------|
A|----------------------------11-12-13-14------------------------|
E|---------------------------------------------------------------|

e|---------------------------------------------------------------------|
B|---------------------------------------------------------------------|
G|-------------14b15r14p12----------------14b15r14p12------------------|
D|-12-14-14-12-------------12-14-12-14-14--------------12-14-----------|
A|---------------------------------------------------------------------|
E|---------------------------------------------------------------------|

e|------------------------------------------------------------------|
B|------------------------------------------------------------------|
G|-------------14b15r14p12----------------------------12------------|
D|-12-14-14-12-------------12-14-------------12-13-14---------------|
A|-------------------------------11-12-13-14------------------------|
E|------------------------------------------------------------------|

Chorus 1
e|---------------------------------------------------------------|
B|---------------------------------------------------------------|
G|---------------------------------------------------------------|
D|--------------------------------------------5~-----------------|
A|-5-5-55--55-555-7-7-77--77----5-6-7-7---5-7-----5-7------------|
E|-3-3-33--33-333-5-5-55--55--7---------7-------7-----5b6r5-3----|

e|--------------------------------|
B|--------------------------------|
G|--------------------------------|
D|-------------5~-----------------|
A|---7-7---5-7-----5-7------------|
E|-------7-------7-----5b6r5-3----|

e|---------------------------------------------------------------|
B|---------------------------------------------------------------|
G|---------------------------------------------------------------|
D|--------------------------------------------5~-----------------|
A|-5-5-55--55-555-7-7-77--77----5-6-7-7---5-7-----5-7------------|
E|-3-3-33--33-333-5-5-55--55--7---------7-------7-----5b6r5-3----|

e|---------------------------------------|
B|---------------------------------------|
G|-------------------------7-------------|
D|-------------5~------7s9---9p7-5-------|
A|---7-7---5-7-----5-7-------------7-----|
E|-------7-------7-----------------------|

Other choruses
e|---------------------------------------------------------------|
B|---------------------------------------------------------------|
G|---------------------------------------------------------------|
D|--------------------------------------------5~-----------------|
A|-5-5-55--55-555-7-7-77--77----5-6-7-7---5-7-----5-7------------|
E|-3-3-33--33-333-5-5-55--55--7---------7-------7-----5b6r5-3----|

e|--------------------------------|
B|--------------------------------|
G|--------------------------------|
D|-------------5~-----------------|
A|---7-7---5-7-----5-7------------|
E|-------7-------7-----5b6r5-3----|

e|---------------------------------------------------------------|
B|---------------------------------------------------------------|
G|---------------------------------------------------------------|
D|--------------------------------------------5~-----------------|
A|-5-5-55--55-555-7-7-77--77----5-6-7-7---5-7-----5-7------------|
E|-3-3-33--33-333-5-5-55--55--7---------7-------7-----5b6r5-3----|

e|----------------------------------------|
B|----------------------------------------|
G|----------------------------------------|
D|-------------5~-------------------------|
A|---7-7---5-7-----5-7-7/-----------------|
E|-------7-------7------------------------|

SOLO
e|-15p12-----15p12-15p12-----15p12-15p2-----------------------|
B|------15p12-----------15p12-----------15p12-----------------|
G|------------------------------------------------------------|
D|------------------------------------------------------------|x2
A|------------------------------------------------------------|
E|------------------------------------------------------------|

e|-15p12--------------------15p12----------15p12----------15p12-----------|
B|------15p12------15p12---------15p12----------15p12----------15p12------|
G|------------14p12-----14------------14p12----------14p12----------14p12-|
D|------------------------0-----------------------------------------------|
A|------------------------------------------------------------------------|
E|------------------------------------------------------------------------|

e|-----------------------------------------------|
B|-15p12-15p12-----15p12-15p12-----15p12---------|
G|------------14p12-----------14p12-----14p12----|
D|-----------------------------------------------|x2
A|-----------------------------------------------|
E|-----------------------------------------------|

e|----------------------------------------------------------------|
B|---------15-----------------------------------------------------|
G|-14b-14b----14b(15)r14p12-14-12-14b-14-12-14-12-14b-14-12-14-12-|
D|----------------------------------------------------------------|
A|----------------------------------------------------------------|
E|----------------------------------------------------------------|

e|-------------------------------12-12b--12b--15b----------------|
B|-------------------15-15b18--15---15b--15b---------------------|
G|-14b-14-12-14-12~----------------------------------------------|
D|---------------------------------------------------------------|
A|---------------------------------------------------------------|
E|---------------------------------------------------------------|

e|--18b--18-16-18b--16-18b-18~~----------------------------------|
B|---------------------------------------------------------------|
G|---------------------------------------------------------------|
D|---------------------------------------------------------------|
A|---------------------------------------------------------------|
E|---------------------------------------------------------------|

Bridge
e|---------------------------------------------------------------|
B|---------------------------------------------------------------|
G|-7----7----4---(4)/--------------------------------------------|
D|-7----7----4---(4)/--------------Rest--------------------------|
A|-5----4----2---(2)/--------------------------------------------|
E|---------------------------------------------------------------|

e|---------------------------------------------------------------|
B|---------------------------------------------------------------|
G|--------------------------------Rest---------------------------|
D|---------------------------------------------------------------|
A|-7----7----4---(4)/--------------------------------------------|
E|-5----4----2---(2)/--------------------------------------------|
x2

e|-----------------------------------------------------------------|
B|-0--0--0--0--0--0--0--0--0--0--0--0--0--0--0---------------------|
G|-6b-6b-6b-6b-6b-6b-6b-6b-6b-6b-6b-6b-6b-6b-6b--------------------|
D|-----------------------------------------------------------------|
A|-----------------------------------------------------------------|
E|-----------------------------------------------------------------|

RHCP FOREVER!!!!

| b bend
| 14b(15)r note is pre-bent to parentheses then released to original note
| /  slide up
| \  slide down
| h  hammer-on
| p  pull-off
| ~  vibrato
| +  harmonic
| x  Mute note
Tap to rate this tab
# A B C D E F G H I J K L M N O P Q R S T U V W X Y Z