Song name
# A B C D E F G H I J K L M N O P Q R S T U V W X Y Z

Red Line Chemistry - Dumb Luck tab

-------------------------------------------------------------------------------
			     DUMB LUCK - Red Line Chemistry
-------------------------------------------------------------------------------
Tabbed by: hessta
Email: tygehess@hotmail.com
**This is my interpretation of the song**

http://www.redlinechemistry.com/

Tuning: Db


0:00
e|---------------|
B|-----------/6~-|
G|---------------|
D|--0--0-1-------|
A|--0--0-1-------|
D|--0--0-1-------|

Intro/Verse Riff A
0:04
e|---|------------------------------|
B|---|o----------------------------o|
G|---|------------------------------|
D|-2-|--2--0-2--0-1-2-0-1-2-5--0-2--|
A|-2-|o-2--0-2--0-1-2-0-1-2-5--0-2-o|
D|-2-|--2--0-2--0-1-2-0-1-2-5--0-2--|  Repeat Thru-out Song
                p.m.........

Intro Solo
0:14
e|----------------------------------------------------------|
B|----------------------------------------------------------|
G|--7b-7b--7^--------------------------------------7b8-5-7~-|
D|--7b-7b-----7-6-5-5--------------------5-7-7b8-5----------|
A|--------------------7~--5-5-5-7----5-7--------------------|
D|----------------------------------------------------------|  x1


Riff A 4X


Fill A
0:36
e|----------------|
B|----------------|
G|----------------|
D|--0-1-2--0-1-2--|
A|----------------|
D|----------------|  x1


Fill B
0:50
e|-----------------------|
B|-----------------------|
G|-----------------------|
D|--0-1-2--0-1-2-5-2--2--|
A|--0-1-2--0-1-2-5-2--2--|
D|--0-1-2--0-1-2-5-2--2--|  x2


Pre-Chorus/Riff B
0:52
e|------------------------|
B|------------------------|
G|------------------------|
D|-------------------2-2--|
A|--6-6-5-5-4-4-4-2--2-2--|
D|-------------------2-2--|  x2

1:01
e|------------------------|
B|------------------------|
G|--8-8-7-7-6-6-6-4-------|
D|--x-x-x-x-x-x-x-x--2-2--|
A|--6-6-5-5-4-4-4-2--2-2--|
D|-------------------2-2--|  x1

1:06
e|---------------------|
B|---------------------|
G|---------------------|
D|--8-8-7-7-6-6-5------|
A|----------------7-5--|  x1
D|---------------------| 

Chorus
1:09
e|----------------------|
B|----------------------|
G|---5-------5----------|
D|---5---7---5---7---8--|
A|---3---7---3---7---8--| 
D|-------7-------7---8--|  x2


Repeat Verse/Riff A Under Solo

Fill B
1:44
e|-------------|
B|-------------|
G|--8-7-6-5----|
D|----------7--|
A|-------------|  x1
D|-------------|
Tap to rate this tab
 
# A B C D E F G H I J K L M N O P Q R S T U V W X Y Z