Song name
# A B C D E F G H I J K L M N O P Q R S T U V W X Y Z

Red Rider - Human Race tab

Help us improve GuitareTab! Take a short survey!
| /  slide up
| \  slide down
| h  hammer-on
| p  pull-off
| ~  vibrato
| +  harmonic
| x  Mute note
| w  whammy bar 
| b  bend
| r  return


intro (riff 1)
e|---11-w-11-------10-----11-----10---------|x2
B|---10-w-10--------------------------------|
G|---10-w-10---12b----12b----12b------------|
D|------------------------------------------|
A|------------------------------------------|
E|------------------------------------------|

*verse 1*
I can see it on the road ahead
Running hard I'm here
But I could be there instead
(riff 1)
Many houses with the lights on
Silhouettes behind the shades
Beside fires
I'm sure that I saw you in one
(riff 1)
I loved you but,
That was way back then
Now I'm alone outside
And I face the wind
The rain washes me thin
(riff 1)

*chorus*

1
Knocked me down and I got back up
       2                           3            1         2         3
And I got myself back in the race again     e|-----|  e|-----|  e|-----|
(riff 1)                                    B|-----|  B|-----|  B|-----|
                                            G|-----|  G|-----|  G|-----|
                                            D|--7--|  D|--5--|  D|--2--|
                                            A|--7--|  A|--5--|  A|--2--|
1                                           E|--5--|  E|--3--|  E|--0--|
Knock me down, and I'll get back up
          2                           3
And I'll get myself Back in the race again

*verse 2*
Race through the shadows
Race against stone
The sunken city that
I thought was my own
(riff 1)
Might be in a brave new world
But it's really not my home
(riff 1)
Roll over fall in
"My god", I screamed
They might catch them,
But they won't catch me
(riff 1)
I'm out here clean and
I'm free...yes I'm free
(riff 1)

*chorus*

1
Knocked me down and I got back up
       2                           3            1         2         3
And I got myself back in the race again     e|-----|  e|-----|  e|-----|
(riff 1)                                    B|-----|  B|-----|  B|-----|
                                            G|-----|  G|-----|  G|-----|
                                            D|--7--|  D|--5--|  D|--2--|
                                            A|--7--|  A|--5--|  A|--2--|
1                                           E|--5--|  E|--3--|  E|--0--|
Knock me down, and I'll get back up
          2                           3
And I'll get myself Back in the race again


Solo
e|--10b11r10------------------------------------------------|
B|-------------11---9/21~~~~~~~-----------------------------|
G|----------------------------------------------------------|
D|----------------------------------------------------------|
A|----------------------------------------------------------|
E|----------------------------------------------------------|

e|--10b11r10------------------------------------------------|
B|-------------11-/-13---\\--8---8~~~~~~~~~-----------------|
G|----------------------------------------------------------|
D|----------------------------------------------------------|
A|----------------------------------------------------------|
E|----------------------------------------------------------|

e|--(11)r10-\-8---------------------------------------------|
B|---------------11-/-13---------------------///---20-------|
G|----------------------------------------------------------|
D|----------------------------------------------------------|
A|----------------------------------------------------------|
E|----------------------------------------------------------|

e|----------------------------------------------------------|
B|--12b13r12--9----12br13--------------\\--8----8-----------|
G|----------------------------------------------------------|
D|----------------------------------------------------------|
A|----------------------------------------------------------|
E|----------------------------------------------------------|

e|--19b20-r19-----15----------------------------------------|
B|------------------------18---------------18--//-20--------|
G|----------------------------17-----------17--//-19--------|
D|----------------------------------------------------------|
A|----------------------------------------------------------|
E|----------------------------------------------------------|

e|--19b20-r19-----15----19b20-------------------------------|
B|-----------------------------------------12b13r12b13------|
G|----------------------------------------------------------|
D|----------------------------------------------------------|
A|----------------------------------------------------------|
E|----------------------------------------------------------|

*chorus*
1
Knocked me down and I got back up
       2                           3            1         2         3
And I got myself back in the race again     e|-----|  e|-----|  e|-----|
(riff 1)                                    B|-----|  B|-----|  B|-----|
                                            G|-----|  G|-----|  G|-----|
                                            D|--7--|  D|--5--|  D|--2--|
                                            A|--7--|  A|--5--|  A|--2--|
1                                           E|--5--|  E|--3--|  E|--0--|
Knock me down, and I'll get back up
          2                           3
And I'll get myself Back in the race again

e|--------------------------------------------------------|
B|--------------------------------------------------------|
G|--------------------------------------------------------|
D|--------------------------------------------------------|
A|---8---8------6---6------5---5------3---3---------------|
E|--------------------------------------------------------|

e|--------------------------------------------------------|
B|--------------------------------------------------------|
G|--------------------------------------------------------|
D|--------------------------------------------------------|
A|---5---6------5---5------3---3------6-5-0-3-------------|
E|---------------------------------------------3-/-6-/-8--|
Related for Human Race tab