Song name
# A B C D E F G H I J K L M N O P Q R S T U V W X Y Z

Red Snapper - 4 Dead Monks tab

Red Snapper : 4 dead monks ( basic chords - play all song )
http://www.redsnapperofficial.com/

 |       |       |       |        |       |       |       |        
|--------1-----------------------|--------0----------------------|
|--------3-----------------------|--------3-(5h3)----------------|
|2-------2-----------------------|2-------3----------------------|
|--------------------------------|--------0----------------------|
|--------------------------------|-------------------------------|
|--------------------------------|-------------------------------|
 
 |       |       |       |        |       |       |       |        
|--------0-------------------------------------------------------|
|--------5-----------------------|3-------3----------------------|
|--------5-----------------------|--------2----------------------|
|5-------0-----------------------|--------3----------------------|
|--------------------------------|-------------------------------|
|--------------------------------|-------------------------------|



 |       |       |       |        |       |       |       |        
|--------1-----------------------|--------0----------------------|
|--------3-----------------------|--------3-(5h3)----------------|
|2-------2-----------------------|2-------3----------------------|
|--------------------------------|--------0----------------------|
|--------------------------------|-------------------------------|
|--------------------------------|-------------------------------|
 
 |       |       |       |        |       |       |       |        
|--------0-------------------------------------------------------|
|--------5-----------------------|3-------3----------------------|
|--------5-----------------------|--------2----------------------|
|5-------0-----------------------|--------3----------------------|
|--------------------------------|-------------------------------|
|--------------------------------|-------------------------------|
 
 
 
 Part 2
 
 |       |       |       |        |       |       |       |        
|--------------------------------|--------------------------------|
|--------------------------------|--------------------------------|
|2h3-----2-----------------------|2h3-----2-----------------------| x2
|--------------------3-----------|--------------------3-----------|
|--------------------------------|--------------------------------|
|----------------5---------------|----------------5---------------|
Tap to rate this tab
# A B C D E F G H I J K L M N O P Q R S T U V W X Y Z