Song name
# A B C D E F G H I J K L M N O P Q R S T U V W X Y Z

Redd Kross - Kiss The Goat tab

e: Tue, 2 Jun 1998 12:27:21 -0700
From: wnb 
Subject: r/redd_kross/kiss_the_goat.crd

Kiss The Goat - Redd Kross [from the album "Show World"]
(Jeffrey McDonald, Steven McDonald, Eddie Kurdziel)
Tabbed by: Tania Taylor [saragon@ozemail.com.au]

Intro:

D ----1-----------
A -2-------------- (repeat)(muted)
E ----------------

Verse 1:

D - B 

    D
Oh, fifty cents

For a dead man's eye, yeah
B
 Everything in sight
                        D  F-G     
Anything that money can buy - oh yeah
  D
I took on a chance
                           B
On a dance with the ocean - move so slow
          D              F-G
Invisible phantom motion
              D                      F-G
(Phantom me-motion-invisible Phantom motion)

G
On and on dictates the groove
  A                               B\
I found that I - I found I had no shoes


Verse 2:
D - B

    D
One foot in front

One foot behind me
B
 The evil eye
                     D   F-G
It made me walk the line - oh no
  D
A girl was there

She had a pompous glare
B
 I held her hand
              D  F-G
Had to be her man
                        D                    F-G
(Had to be her - Had to be her - Man - man - yeah)


G
On and on dictates the groove
  A                               B\
I found that I - I found I had no shoes


D-FGC        A    
I want to go home again
D-FGC        A    
I want to go home again
D-FGC        A    
I want to go home again
F-C          D
I want to go home

D# - E - F - F#

   G
No turning back

You've made you choices
A
 It's time for you
                              B +r
It's time for you to kiss the goat

+r
e -14-11-14-14-11-14-14-11-16-14-14-11----------------------------
B ----------------------------------------------------------------
G ----------------------------------------------------------------
D ----------------------------------------------------------------
A ----------------------------------------------------------------
E ----------------------------------------------------------------

D-FGC        A    
I want to go home again
D-FGC        A    
I want to go home again
D-FGC        A    
I want to go home again
F - C  - C#
I

D-FGC        A    
I want to go home again
D-FGC        A    
I want to go home again
D-FGC        A    
I want to go home again
F - C - C#
I want to go home

Outro:

e -------------------------|----------------------------
B -------------------------|----------------------------
G -------------------------|---------7--9---------7--9--
D ----------7-----------7--|--7--10--------7--10--------
A -5--7--8-----5--7--8-----|----------------------------
E -------------------------|----------------------------

                              b
e -------------------------|----------------------------
B -------------------------|----------------------------
G -------------------------|--7-------------------------
D ----------7-----------7--|----------------------------
A -5--7--8-----5--7--8-----|----------------------------
e -------------------------|----------------------------

Ends on:
A
Tap to rate this tab
# A B C D E F G H I J K L M N O P Q R S T U V W X Y Z