Song name
# A B C D E F G H I J K L M N O P Q R S T U V W X Y Z

Reel Big Fish - Im Cool tab

Help us improve GuitareTab! Take a short survey!
I'm Cool
Why Do They Rock So Hard?
Reel Big Fish

Intro/Main Riff
|-------------|-------------|-------------|--------------|
|----------7--|-------------|----------7--|--------------|
|--------8----|-------------|--------8----|--------------|
|--9-9-9------|--9-9-9-6----|--9-9-9------|--------------|
|-------------|----------9--|-------------|--9-9-7~9~7~--|
|-------------|-------------|-------------|--------------|

|-------------|-------------|-------------|---------|
|----------7--|-------------|----------7--|---------|
|--------8----|-------------|--------8----|---------|
|--9-9-9------|--9-9-9-6----|--9-9-9------|---------|
|-------------|----------9--|-------------|--7-7-9--|
|-------------|-------------|-------------|---------|

Main Chords
|--7--/7--6--4--|
|--7--/7--7--5--|
|--8--/8--6--4--|
|--9--/9--8--6--|
|---------------|
|---------------|
*vary the slide and chord use

Verse
|-------------|--------------|
|----------7--|--------------|
|--------8----|--------------|
|--9-9-9------|--------------|
|-------------|--7-9-7-------|
|-------------|--------9--7--|

|-------------|----------------|
|----------7--|----------------|
|--------8----|----------------|
|--9-9-9------|----------------|
|-------------|--11-11-9-7-----|
|-------------|------------11--|

Pt. 2
|-----------------|---------|
|-----------------|---------|
|-----------------|---------|
|----8-9-11--9-8--|---------|
|--9--------------|--7-7-9--|
|-----------------|---------|


That's pretty much it
Related for Im Cool tab