Song name
# A B C D E F G H I J K L M N O P Q R S T U V W X Y Z

Refreshments - Nada tab

Help us improve GuitareTab! Take a short survey!
This is not 100% correct...i felt the urge to put this up so you could all criticize my 
and tell me how to fix it, be gentle though this is my first one

e-------------------------------------------------------------|
b------^------------------------------------------------------|
g-----9-10--------0-----12-----10--9-----9-10-9-10--7----5/7--|
d-10---------^------------------------------------------------|
a-8---------7-8-----------------------------------------------|
e-------------------------------------------------------------|

e--------------------------------------------------------------------|
b--^------^--------^-------------------------------------------------|
g-7-9---12-14-----9-10---------3--2---0--------^--------------^------|
d--------------10-------^---5------------3-2--2-3-2------0-2-2-3-2-3-|
a--------------8-------7-8-------------------------3---3-------------|
e--------------------------------------------------------------------|

e-mail me all your corrections @ music_addict0318@yahoo.com
Related for Nada tab