Song name
# A B C D E F G H I J K L M N O P Q R S T U V W X Y Z

Reign Supreme - Mother Superior tab

ARTIST: Reign Supreme
WEBSITE: http://www.deathwishinc.com/bands/75/
SONG: Mother Superior
ALBUM: Testing The Limits Of Infinite
TABBED BY: GuyWithBigWiener@gmail.com
TUNING: Drop C#
NOTES: Tabbed by ear. Send corrections to the above email.

Intro:
D#|--------------------------|
A#|--------------------------|
F#|--------------------------|
C#|--------------------------|
G#|--0-1-0-3~-0-1-0-1-1-0-1--|
C#|--0-1-0-3~-0-1-0-1-1-0-1--| 
     x x x    x x x       

Verse:
D#|---------------------------------------------------------------|
A#|------------------------------------------------16-16----------|
F#|------------------------------------------------15-15----------|
C#|------------8-8-8-8-----------5-5-6----------------------------| x2
G#|--0-0-0-0-0-6-6-6-6-0-0-0-0-0-3-3-4-5-0-0-0-0-0-------0-0-8-7--|
C#|--0-0-0-0-0---------0-0-0-0-0-------5-0-0-0-0-0-------0-0-8-7--| 
     x                 x                 x               x x

Chorus:
D#|-------------------------------------------------------------------|
A#|-------------------------------------------------------------------|
F#|-------------------------------------------------------------------|
C#|-------------------------------------------------------------------|
G#|--0-0-1-1-4-4-0-0-1-1-4-4-0-0-1-1-4-4-0-0-1-1-4-4-4-4-4-4-4-4-4-4--|
C#|--0-0-1-1-4-4-0-0-1-1-4-4-0-0-1-1-4-4-0-0-1-1-4-4-4-4-4-4-4-4-4-4--| 


Pre-Breakdown
D#|------------------------------------------------|
A#|------------------------------------------------|
F#|------------------------------------------------|
C#|------------------------------------------------|
G#|--0-0--------------------------------------6\0--|
C#|--0-0-1-0-0--0-0-1-0-0--0-0-1-0-0--0-0-1-0-6\0--| 

Breakdown
D#|------------------------------------------------|
A#|------------------------------------------------|
F#|------------------------------------------------|
C#|------------------------------------------------| x2
G#|--0-0-1-0-0--0-0-1-0-0--0-0-1-0-0--0-0-1-0-6\0--|
C#|--0-0-1-0-0--0-0-1-0-0--0-0-1-0-0--0-0-1-0-6\0--|

D#|-------------------------------------------------------------|
A#|-------------------------------------------------------------|
F#|-------------------------------------------------------------|
C#|-------------------------------------------------------------|
G#|--0-0-1-00-000--0-0-1-00-000--0-0-1-00-000--0-0-1-0-6\0-0-0--|
C#|--0-0-1-00-000--0-0-1-00-000--0-0-1-00-000--0-0-1-0-6\0-0-0--|
           xx xxx        xx xxx        xx xxx
Tap to rate this tab
 
# A B C D E F G H I J K L M N O P Q R S T U V W X Y Z